  0
SECTION
  2
HEADER
  9
$ACADVER
  1
AC1009
  9
$DWGCODEPAGE
  3
ANSI_1252
  9
$EXTMIN
 10
1e+20
 20
1e+20
 30
1e+20
  9
$EXTMAX
 10
-1e+20
 20
-1e+20
 30
-1e+20
  9
$LIMMIN
 10
0.0
 20
0.0
  9
$LIMMAX
 10
420.0
 20
297.0
  9
$TDCREATE
 40
2461042.7516087964
  9
$TDUPDATE
 40
2461042.7516087964
  9
$ANGBASE
 50
0.0
  9
$ANGDIR
 70
0
  9
$PEXTMIN
 10
1e+20
 20
1e+20
 30
1e+20
  9
$PEXTMAX
 10
-1e+20
 20
-1e+20
 30
-1e+20
  9
$PLIMMIN
 10
0.0
 20
0.0
  9
$PLIMMAX
 10
420.0
 20
297.0
  0
ENDSEC
  0
SECTION
  2
TABLES
  0
TABLE
  2
VPORT
 70
1
  0
VPORT
  2
*Active
 70
0
 10
0.0
 20
0.0
 11
1.0
 21
1.0
 12
0.0
 22
0.0
 13
0.0
 23
0.0
 14
0.5
 24
0.5
 15
0.5
 25
0.5
 16
0.0
 26
0.0
 36
1.0
 17
0.0
 27
0.0
 37
0.0
 40
1000.0
 41
1.34
 42
50.0
 43
0.0
 44
0.0
 50
0.0
 51
0.0
 71
0
 72
1000
 73
1
 74
3
 75
0
 76
0
 77
0
 78
0
  0
ENDTAB
  0
TABLE
  2
LTYPE
 70
3
  0
LTYPE
  2
ByBlock
 70
0
  3

 72
65
 73
0
 40
0.0
  0
LTYPE
  2
ByLayer
 70
0
  3

 72
65
 73
0
 40
0.0
  0
LTYPE
  2
Continuous
 70
0
  3

 72
65
 73
0
 40
0.0
  0
ENDTAB
  0
TABLE
  2
LAYER
 70
2
  0
LAYER
  2
0
 70
0
 62
7
  6
Continuous
  0
LAYER
  2
Defpoints
 70
0
 62
7
  6
Continuous
  0
ENDTAB
  0
TABLE
  2
STYLE
 70
1
  0
STYLE
  2
Standard
 70
0
 40
0.0
 41
1.0
 50
0.0
 71
0
 42
2.5
  3
txt
  4

  0
ENDTAB
  0
TABLE
  2
VIEW
 70
0
  0
ENDTAB
  0
TABLE
  2
UCS
 70
0
  0
ENDTAB
  0
TABLE
  2
APPID
 70
3
  0
APPID
  2
ACAD
 70
0
  0
APPID
  2
HATCHBACKGROUNDCOLOR
 70
0
  0
APPID
  2
EZDXF
 70
0
  0
ENDTAB
  0
TABLE
  2
DIMSTYLE
 70
1
  0
DIMSTYLE
  2
Standard
 70
0
  3

  4

  5

  6

  7

 40
1.0
 41
2.5
 42
0.625
 43
3.75
 44
1.25
 45
0.0
 46
0.0
 47
0.0
 48
0.0
140
2.5
141
2.5
142
0.0
143
0.03937007874
144
1.0
145
0.0
146
1.0
147
0.625
 71
0
 72
0
 73
0
 74
0
 75
0
 76
0
 77
1
 78
8
170
0
171
3
172
1
173
0
174
0
175
0
176
0
177
0
178
0
  0
ENDTAB
  0
ENDSEC
  0
SECTION
  2
BLOCKS
  0
BLOCK
  8
0
  2
$Model_Space
 70
0
 10
0.0
 20
0.0
 30
0.0
  3
$Model_Space
  1

1001
EZDXF
1000
WRITTEN_BY_EZDXF
1000
1.3.4 @ 2026-01-01T17:02:19.096993+00:00
  0
ENDBLK
  8
0
  0
BLOCK
  8
0
  2
$Paper_Space
 70
0
 10
0.0
 20
0.0
 30
0.0
  3
$Paper_Space
  1

  0
ENDBLK
  8
0
  0
ENDSEC
  0
SECTION
  2
ENTITIES
  0
LINE
  8
1
 62
0
 10
-176.065
 20
-150.237
 30
0.0
 11
-176.065
 21
-149.637
 31
0.0
  0
LINE
  8
1
 62
0
 10
-176.065
 20
-149.637
 30
0.0
 11
-191.065
 21
-149.637
 31
0.0
  0
LINE
  8
1
 62
0
 10
-191.065
 20
-149.637
 30
0.0
 11
-191.065
 21
-150.637
 31
0.0
  0
LINE
  8
1
 62
0
 10
-191.065
 20
-150.637
 30
0.0
 11
-176.065
 21
-150.637
 31
0.0
  0
LINE
  8
1
 62
0
 10
-176.065
 20
-150.637
 30
0.0
 11
-176.065
 21
-150.237
 31
0.0
  0
LINE
  8
1
 62
0
 10
-176.065
 20
-150.637
 30
0.0
 11
-166.065
 21
-150.637
 31
0.0
  0
LINE
  8
1
 62
0
 10
-166.065
 20
-150.637
 30
0.0
 11
-166.065
 21
-151.137
 31
0.0
  0
LINE
  8
1
 62
0
 10
-166.065
 20
-151.137
 30
0.0
 11
-83.75
 21
-151.137
 31
0.0
  0
LINE
  8
1
 62
0
 10
-83.75
 20
-109.303
 30
0.0
 11
-81.75
 21
-108.149
 31
0.0
  0
LINE
  8
1
 62
0
 10
-81.75
 20
-108.149
 30
0.0
 11
-81.75
 21
-68.625
 31
0.0
  0
LINE
  8
1
 62
0
 10
-81.75
 20
-68.625
 30
0.0
 11
-83.75
 21
-67.47
 31
0.0
  0
LINE
  8
1
 62
0
 10
-83.75
 20
-109.303
 30
0.0
 11
-83.75
 21
-67.47
 31
0.0
  0
LINE
  8
1
 62
0
 10
-83.75
 20
-25.637
 30
0.0
 11
-144.5
 21
-25.637
 31
0.0
  0
LINE
  8
1
 62
0
 10
-144.5
 20
-25.637
 30
0.0
 11
-166.065
 21
-25.637
 31
0.0
  0
LINE
  8
1
 62
0
 10
-166.065
 20
-25.637
 30
0.0
 11
-166.065
 21
-26.137
 31
0.0
  0
LINE
  8
1
 62
0
 10
-166.065
 20
-26.137
 30
0.0
 11
-248.065
 21
-26.137
 31
0.0
  0
LINE
  8
1
 62
0
 10
-248.065
 20
-26.137
 30
0.0
 11
-248.065
 21
-67.47
 31
0.0
  0
LINE
  8
1
 62
0
 10
-248.065
 20
-67.47
 30
0.0
 11
-250.065
 21
-68.625
 31
0.0
  0
LINE
  8
1
 62
0
 10
-250.065
 20
-68.625
 30
0.0
 11
-250.065
 21
-108.149
 31
0.0
  0
LINE
  8
1
 62
0
 10
-250.065
 20
-108.149
 30
0.0
 11
-248.065
 21
-109.303
 31
0.0
  0
LINE
  8
1
 62
0
 10
-248.065
 20
-109.303
 30
0.0
 11
-248.065
 21
-150.637
 31
0.0
  0
LINE
  8
1
 62
0
 10
-248.065
 20
-150.637
 30
0.0
 11
-191.065
 21
-150.637
 31
0.0
  0
LINE
  8
1
 62
0
 10
-144.5
 20
-151.137
 30
0.0
 11
-144.5
 21
-231.637
 31
0.0
  0
LINE
  8
1
 62
0
 10
-144.5
 20
-231.637
 30
0.0
 11
-83.75
 21
-231.637
 31
0.0
  0
LINE
  8
1
 62
0
 10
-83.75
 20
-231.637
 30
0.0
 11
-83.75
 21
-232.637
 31
0.0
  0
LINE
  8
1
 62
0
 10
-83.75
 20
-232.637
 30
0.0
 11
30.0
 21
-232.637
 31
0.0
  0
LINE
  8
1
 62
0
 10
30.0
 20
-232.637
 30
0.0
 11
83.75
 21
-232.637
 31
0.0
  0
LINE
  8
1
 62
0
 10
83.75
 20
-232.637
 30
0.0
 11
83.75
 21
-231.637
 31
0.0
  0
LINE
  8
1
 62
0
 10
83.75
 20
-231.637
 30
0.0
 11
144.5
 21
-231.637
 31
0.0
  0
LINE
  8
1
 62
0
 10
144.5
 20
-231.637
 30
0.0
 11
144.5
 21
-151.137
 31
0.0
  0
LINE
  8
1
 62
0
 10
144.5
 20
-151.137
 30
0.0
 11
166.065
 21
-151.137
 31
0.0
  0
LINE
  8
1
 62
0
 10
166.065
 20
-151.137
 30
0.0
 11
166.065
 21
-150.637
 31
0.0
  0
LINE
  8
1
 62
0
 10
166.065
 20
-150.637
 30
0.0
 11
191.065
 21
-150.637
 31
0.0
  0
LINE
  8
1
 62
0
 10
191.065
 20
-150.637
 30
0.0
 11
248.065
 21
-150.637
 31
0.0
  0
LINE
  8
1
 62
0
 10
248.065
 20
-150.637
 30
0.0
 11
248.065
 21
-109.303
 31
0.0
  0
LINE
  8
1
 62
0
 10
248.065
 20
-109.303
 30
0.0
 11
250.065
 21
-108.149
 31
0.0
  0
LINE
  8
1
 62
0
 10
250.065
 20
-108.149
 30
0.0
 11
250.065
 21
-68.625
 31
0.0
  0
LINE
  8
1
 62
0
 10
250.065
 20
-68.625
 30
0.0
 11
248.065
 21
-67.47
 31
0.0
  0
LINE
  8
1
 62
0
 10
248.065
 20
-67.47
 30
0.0
 11
248.065
 21
-26.137
 31
0.0
  0
LINE
  8
1
 62
0
 10
248.065
 20
-26.137
 30
0.0
 11
166.065
 21
-26.137
 31
0.0
  0
LINE
  8
1
 62
0
 10
166.065
 20
-26.137
 30
0.0
 11
166.065
 21
-25.637
 31
0.0
  0
LINE
  8
1
 62
0
 10
166.065
 20
-25.637
 30
0.0
 11
144.5
 21
-25.637
 31
0.0
  0
LINE
  8
1
 62
0
 10
144.5
 20
-25.637
 30
0.0
 11
144.5
 21
54.863
 31
0.0
  0
LINE
  8
1
 62
0
 10
144.5
 20
54.863
 30
0.0
 11
83.75
 21
54.863
 31
0.0
  0
LINE
  8
1
 62
0
 10
83.75
 20
54.863
 30
0.0
 11
83.75
 21
55.863
 31
0.0
  0
LINE
  8
1
 62
0
 10
83.75
 20
55.863
 30
0.0
 11
75.378
 21
70.363
 31
0.0
  0
ARC
  8
1
 62
0
 10
72.78
 20
68.863
 30
0.0
 40
3.0
 50
30.000057
 51
90.000437
  0
LINE
  8
1
 62
0
 10
72.78
 20
71.863
 30
0.0
 11
-72.78
 21
71.863
 31
0.0
  0
ARC
  8
1
 62
0
 10
-72.78
 20
68.863
 30
0.0
 40
3.0
 50
89.999563
 51
149.999943
  0
LINE
  8
1
 62
0
 10
-75.378
 20
70.363
 30
0.0
 11
-83.75
 21
55.863
 31
0.0
  0
LINE
  8
1
 62
0
 10
-83.75
 20
55.863
 30
0.0
 11
-83.75
 21
54.863
 31
0.0
  0
LINE
  8
1
 62
0
 10
-83.75
 20
54.863
 30
0.0
 11
-144.5
 21
54.863
 31
0.0
  0
LINE
  8
1
 62
0
 10
-144.5
 20
54.863
 30
0.0
 11
-144.5
 21
-25.637
 31
0.0
  0
LINE
  8
1
 62
0
 10
83.75
 20
-151.137
 30
0.0
 11
144.5
 21
-151.137
 31
0.0
  0
LINE
  8
1
 62
0
 10
83.75
 20
-109.303
 30
0.0
 11
81.75
 21
-108.149
 31
0.0
  0
LINE
  8
1
 62
0
 10
81.75
 20
-108.149
 30
0.0
 11
81.75
 21
-68.625
 31
0.0
  0
LINE
  8
1
 62
0
 10
81.75
 20
-68.625
 30
0.0
 11
83.75
 21
-67.47
 31
0.0
  0
LINE
  8
1
 62
0
 10
83.75
 20
-109.303
 30
0.0
 11
83.75
 21
-67.47
 31
0.0
  0
LINE
  8
1
 62
0
 10
83.75
 20
-25.637
 30
0.0
 11
144.5
 21
-25.637
 31
0.0
  0
LINE
  8
1
 62
0
 10
83.75
 20
82.263
 30
0.0
 11
83.75
 21
206.863
 31
0.0
  0
LINE
  8
1
 62
0
 10
83.75
 20
206.863
 30
0.0
 11
81.25
 21
206.863
 31
0.0
  0
LINE
  8
1
 62
0
 10
81.25
 20
206.863
 30
0.0
 11
81.25
 21
216.863
 31
0.0
  0
LINE
  8
1
 62
0
 10
81.25
 20
216.863
 30
0.0
 11
83.25
 21
216.863
 31
0.0
  0
LINE
  8
1
 62
0
 10
83.25
 20
216.863
 30
0.0
 11
83.25
 21
226.863
 31
0.0
  0
LINE
  8
1
 62
0
 10
83.25
 20
226.863
 30
0.0
 11
73.25
 21
232.637
 31
0.0
  0
LINE
  8
1
 62
0
 10
73.25
 20
232.637
 30
0.0
 11
-73.25
 21
232.637
 31
0.0
  0
LINE
  8
1
 62
0
 10
-73.25
 20
232.637
 30
0.0
 11
-83.25
 21
226.863
 31
0.0
  0
LINE
  8
1
 62
0
 10
-83.25
 20
226.863
 30
0.0
 11
-83.25
 21
216.863
 31
0.0
  0
LINE
  8
1
 62
0
 10
-83.25
 20
216.863
 30
0.0
 11
-81.25
 21
216.863
 31
0.0
  0
LINE
  8
1
 62
0
 10
-81.25
 20
216.863
 30
0.0
 11
-81.25
 21
206.863
 31
0.0
  0
LINE
  8
1
 62
0
 10
-81.25
 20
206.863
 30
0.0
 11
-83.75
 21
206.863
 31
0.0
  0
LINE
  8
1
 62
0
 10
-83.75
 20
206.863
 30
0.0
 11
-83.75
 21
81.863
 31
0.0
  0
LINE
  8
1
 62
0
 10
-83.75
 20
81.863
 30
0.0
 11
83.75
 21
81.863
 31
0.0
  0
LINE
  8
1
 62
0
 10
83.75
 20
81.863
 30
0.0
 11
83.75
 21
82.263
 31
0.0
  0
LINE
  8
1
 62
0
 10
191.065
 20
-150.637
 30
0.0
 11
191.065
 21
-149.637
 31
0.0
  0
LINE
  8
1
 62
0
 10
191.065
 20
-149.637
 30
0.0
 11
176.065
 21
-149.637
 31
0.0
  0
LINE
  8
1
 62
0
 10
176.065
 20
-149.637
 30
0.0
 11
176.065
 21
-150.637
 31
0.0
  0
LINE
  8
1
 62
0
 10
30.0
 20
-232.637
 30
0.0
 11
21.34
 21
-217.637
 31
0.0
  0
LINE
  8
1
 62
0
 10
21.34
 20
-217.637
 30
0.0
 11
-21.34
 21
-217.637
 31
0.0
  0
LINE
  8
1
 62
0
 10
-21.34
 20
-217.637
 30
0.0
 11
-30.0
 21
-232.637
 31
0.0
  0
LINE
  8
2
 62
1
 10
-83.75
 20
-231.637
 30
0.0
 11
-83.75
 21
-151.137
 31
0.0
  0
LINE
  8
2
 62
1
 10
-83.75
 20
-151.137
 30
0.0
 11
83.75
 21
-151.137
 31
0.0
  0
LINE
  8
2
 62
1
 10
83.75
 20
-151.137
 30
0.0
 11
83.75
 21
-231.637
 31
0.0
  0
LINE
  8
2
 62
1
 10
83.75
 20
-151.137
 30
0.0
 11
83.75
 21
-109.303
 31
0.0
  0
LINE
  8
2
 62
1
 10
83.75
 20
-67.47
 30
0.0
 11
83.75
 21
-25.637
 31
0.0
  0
LINE
  8
2
 62
1
 10
83.75
 20
-25.637
 30
0.0
 11
-83.75
 21
-25.637
 31
0.0
  0
LINE
  8
2
 62
1
 10
-83.75
 20
-25.637
 30
0.0
 11
-83.75
 21
-67.47
 31
0.0
  0
LINE
  8
2
 62
1
 10
-83.75
 20
-25.637
 30
0.0
 11
-83.75
 21
54.863
 31
0.0
  0
LINE
  8
2
 62
1
 10
-83.75
 20
55.863
 30
0.0
 11
83.75
 21
55.863
 31
0.0
  0
LINE
  8
2
 62
1
 10
83.75
 20
54.863
 30
0.0
 11
83.75
 21
-25.637
 31
0.0
  0
LINE
  8
2
 62
1
 10
166.065
 20
-150.637
 30
0.0
 11
166.065
 21
-26.137
 31
0.0
  0
LINE
  8
2
 62
1
 10
81.25
 20
206.863
 30
0.0
 11
-81.25
 21
206.863
 31
0.0
  0
LINE
  8
2
 62
1
 10
-166.065
 20
-26.137
 30
0.0
 11
-166.065
 21
-150.637
 31
0.0
  0
LINE
  8
2
 62
1
 10
-83.75
 20
-151.137
 30
0.0
 11
-83.75
 21
-109.303
 31
0.0
  0
LINE
  8
3
 62
3
 10
-236.065
 20
-195.637
 30
0.0
 11
-228.065
 21
-195.637
 31
0.0
  0
LINE
  8
3
 62
3
 10
-228.065
 20
-195.637
 30
0.0
 11
-228.065
 21
-215.637
 31
0.0
  0
LINE
  8
3
 62
3
 10
-228.065
 20
-215.637
 30
0.0
 11
-248.065
 21
-215.637
 31
0.0
  0
LINE
  8
3
 62
3
 10
-248.065
 20
-215.637
 30
0.0
 11
-248.065
 21
-195.637
 31
0.0
  0
LINE
  8
3
 62
3
 10
-248.065
 20
-195.637
 30
0.0
 11
-236.065
 21
-195.637
 31
0.0
  0
LINE
  8
3
 62
3
 10
-235.351
 20
-191.637
 30
0.0
 11
-235.351
 21
-191.065
 31
0.0
  0
LINE
  8
3
 62
3
 10
-235.351
 20
-191.065
 30
0.0
 11
-235.779
 21
-191.494
 31
0.0
  0
LINE
  8
3
 62
3
 10
-235.779
 20
-191.494
 30
0.0
 11
-236.065
 21
-191.637
 31
0.0
  0
LINE
  8
3
 62
3
 10
-236.065
 20
-191.637
 30
0.0
 11
-236.494
 21
-191.637
 31
0.0
  0
LINE
  8
3
 62
3
 10
-236.494
 20
-191.637
 30
0.0
 11
-236.779
 21
-191.494
 31
0.0
  0
LINE
  8
3
 62
3
 10
-236.779
 20
-191.494
 30
0.0
 11
-236.922
 21
-191.065
 31
0.0
  0
LINE
  8
3
 62
3
 10
-236.922
 20
-191.065
 30
0.0
 11
-236.922
 21
-189.637
 31
0.0
  0
LINE
  8
3
 62
3
 10
-235.351
 20
-189.637
 30
0.0
 11
-235.351
 21
-191.065
 31
0.0
  0
LINE
  8
3
 62
3
 10
-234.208
 20
-191.637
 30
0.0
 11
-234.208
 21
-190.494
 31
0.0
  0
LINE
  8
3
 62
3
 10
-234.208
 20
-189.637
 30
0.0
 11
-234.208
 21
-190.494
 31
0.0
  0
LINE
  8
3
 62
3
 10
-234.208
 20
-190.494
 30
0.0
 11
-234.065
 21
-190.065
 31
0.0
  0
LINE
  8
3
 62
3
 10
-234.065
 20
-190.065
 30
0.0
 11
-233.779
 21
-189.78
 31
0.0
  0
LINE
  8
3
 62
3
 10
-233.779
 20
-189.78
 30
0.0
 11
-233.494
 21
-189.637
 31
0.0
  0
LINE
  8
3
 62
3
 10
-233.494
 20
-189.637
 30
0.0
 11
-233.065
 21
-189.637
 31
0.0
  0
LINE
  8
3
 62
3
 10
-232.351
 20
-190.494
 30
0.0
 11
-230.636
 21
-190.494
 31
0.0
  0
LINE
  8
3
 62
3
 10
-230.636
 20
-190.494
 30
0.0
 11
-230.636
 21
-190.208
 31
0.0
  0
LINE
  8
3
 62
3
 10
-230.636
 20
-190.208
 30
0.0
 11
-230.779
 21
-189.922
 31
0.0
  0
LINE
  8
3
 62
3
 10
-230.779
 20
-189.922
 30
0.0
 11
-230.922
 21
-189.78
 31
0.0
  0
LINE
  8
3
 62
3
 10
-230.922
 20
-189.78
 30
0.0
 11
-231.208
 21
-189.637
 31
0.0
  0
LINE
  8
3
 62
3
 10
-231.208
 20
-189.637
 30
0.0
 11
-231.636
 21
-189.637
 31
0.0
  0
LINE
  8
3
 62
3
 10
-231.636
 20
-189.637
 30
0.0
 11
-231.922
 21
-189.78
 31
0.0
  0
LINE
  8
3
 62
3
 10
-231.922
 20
-189.78
 30
0.0
 11
-232.208
 21
-190.065
 31
0.0
  0
LINE
  8
3
 62
3
 10
-232.208
 20
-190.065
 30
0.0
 11
-232.351
 21
-190.494
 31
0.0
  0
LINE
  8
3
 62
3
 10
-232.351
 20
-190.494
 30
0.0
 11
-232.351
 21
-190.78
 31
0.0
  0
LINE
  8
3
 62
3
 10
-232.351
 20
-190.78
 30
0.0
 11
-232.208
 21
-191.208
 31
0.0
  0
LINE
  8
3
 62
3
 10
-232.208
 20
-191.208
 30
0.0
 11
-231.922
 21
-191.494
 31
0.0
  0
LINE
  8
3
 62
3
 10
-231.922
 20
-191.494
 30
0.0
 11
-231.636
 21
-191.637
 31
0.0
  0
LINE
  8
3
 62
3
 10
-231.636
 20
-191.637
 30
0.0
 11
-231.208
 21
-191.637
 31
0.0
  0
LINE
  8
3
 62
3
 10
-231.208
 20
-191.637
 30
0.0
 11
-230.922
 21
-191.494
 31
0.0
  0
LINE
  8
3
 62
3
 10
-230.922
 20
-191.494
 30
0.0
 11
-230.636
 21
-191.208
 31
0.0
  0
LINE
  8
3
 62
3
 10
-225.922
 20
-191.637
 30
0.0
 11
-226.208
 21
-191.637
 31
0.0
  0
LINE
  8
3
 62
3
 10
-226.208
 20
-191.637
 30
0.0
 11
-226.494
 21
-191.494
 31
0.0
  0
LINE
  8
3
 62
3
 10
-226.494
 20
-191.494
 30
0.0
 11
-226.636
 21
-191.065
 31
0.0
  0
LINE
  8
3
 62
3
 10
-226.636
 20
-191.065
 30
0.0
 11
-226.636
 21
-189.637
 31
0.0
  0
LINE
  8
3
 62
3
 10
-226.636
 20
-189.637
 30
0.0
 11
-227.065
 21
-189.637
 31
0.0
  0
LINE
  8
3
 62
3
 10
-226.636
 20
-188.637
 30
0.0
 11
-226.636
 21
-189.637
 31
0.0
  0
LINE
  8
3
 62
3
 10
-226.636
 20
-189.637
 30
0.0
 11
-226.065
 21
-189.637
 31
0.0
  0
LINE
  8
3
 62
3
 10
-225.065
 20
-190.494
 30
0.0
 11
-223.351
 21
-190.494
 31
0.0
  0
LINE
  8
3
 62
3
 10
-223.351
 20
-190.494
 30
0.0
 11
-223.351
 21
-190.208
 31
0.0
  0
LINE
  8
3
 62
3
 10
-223.351
 20
-190.208
 30
0.0
 11
-223.494
 21
-189.922
 31
0.0
  0
LINE
  8
3
 62
3
 10
-223.494
 20
-189.922
 30
0.0
 11
-223.636
 21
-189.78
 31
0.0
  0
LINE
  8
3
 62
3
 10
-223.636
 20
-189.78
 30
0.0
 11
-223.922
 21
-189.637
 31
0.0
  0
LINE
  8
3
 62
3
 10
-223.922
 20
-189.637
 30
0.0
 11
-224.351
 21
-189.637
 31
0.0
  0
LINE
  8
3
 62
3
 10
-224.351
 20
-189.637
 30
0.0
 11
-224.636
 21
-189.78
 31
0.0
  0
LINE
  8
3
 62
3
 10
-224.636
 20
-189.78
 30
0.0
 11
-224.922
 21
-190.065
 31
0.0
  0
LINE
  8
3
 62
3
 10
-224.922
 20
-190.065
 30
0.0
 11
-225.065
 21
-190.494
 31
0.0
  0
LINE
  8
3
 62
3
 10
-225.065
 20
-190.494
 30
0.0
 11
-225.065
 21
-190.78
 31
0.0
  0
LINE
  8
3
 62
3
 10
-225.065
 20
-190.78
 30
0.0
 11
-224.922
 21
-191.208
 31
0.0
  0
LINE
  8
3
 62
3
 10
-224.922
 20
-191.208
 30
0.0
 11
-224.636
 21
-191.494
 31
0.0
  0
LINE
  8
3
 62
3
 10
-224.636
 20
-191.494
 30
0.0
 11
-224.351
 21
-191.637
 31
0.0
  0
LINE
  8
3
 62
3
 10
-224.351
 20
-191.637
 30
0.0
 11
-223.922
 21
-191.637
 31
0.0
  0
LINE
  8
3
 62
3
 10
-223.922
 20
-191.637
 30
0.0
 11
-223.636
 21
-191.494
 31
0.0
  0
LINE
  8
3
 62
3
 10
-223.636
 20
-191.494
 30
0.0
 11
-223.351
 21
-191.208
 31
0.0
  0
LINE
  8
3
 62
3
 10
-222.494
 20
-191.208
 30
0.0
 11
-222.351
 21
-191.494
 31
0.0
  0
LINE
  8
3
 62
3
 10
-222.351
 20
-191.494
 30
0.0
 11
-221.922
 21
-191.637
 31
0.0
  0
LINE
  8
3
 62
3
 10
-221.922
 20
-191.637
 30
0.0
 11
-221.494
 21
-191.637
 31
0.0
  0
LINE
  8
3
 62
3
 10
-221.494
 20
-191.637
 30
0.0
 11
-221.065
 21
-191.494
 31
0.0
  0
LINE
  8
3
 62
3
 10
-221.065
 20
-191.494
 30
0.0
 11
-220.922
 21
-191.208
 31
0.0
  0
LINE
  8
3
 62
3
 10
-220.922
 20
-191.208
 30
0.0
 11
-220.922
 21
-191.065
 31
0.0
  0
LINE
  8
3
 62
3
 10
-220.922
 20
-191.065
 30
0.0
 11
-221.065
 21
-190.78
 31
0.0
  0
LINE
  8
3
 62
3
 10
-221.065
 20
-190.78
 30
0.0
 11
-221.351
 21
-190.637
 31
0.0
  0
LINE
  8
3
 62
3
 10
-221.351
 20
-190.637
 30
0.0
 11
-222.065
 21
-190.494
 31
0.0
  0
LINE
  8
3
 62
3
 10
-222.065
 20
-190.494
 30
0.0
 11
-222.351
 21
-190.351
 31
0.0
  0
LINE
  8
3
 62
3
 10
-222.351
 20
-190.351
 30
0.0
 11
-222.494
 21
-190.065
 31
0.0
  0
LINE
  8
3
 62
3
 10
-222.494
 20
-190.065
 30
0.0
 11
-222.351
 21
-189.78
 31
0.0
  0
LINE
  8
3
 62
3
 10
-222.351
 20
-189.78
 30
0.0
 11
-221.922
 21
-189.637
 31
0.0
  0
LINE
  8
3
 62
3
 10
-221.922
 20
-189.637
 30
0.0
 11
-221.494
 21
-189.637
 31
0.0
  0
LINE
  8
3
 62
3
 10
-221.494
 20
-189.637
 30
0.0
 11
-221.065
 21
-189.78
 31
0.0
  0
LINE
  8
3
 62
3
 10
-221.065
 20
-189.78
 30
0.0
 11
-220.922
 21
-190.065
 31
0.0
  0
LINE
  8
3
 62
3
 10
-218.922
 20
-191.637
 30
0.0
 11
-219.208
 21
-191.637
 31
0.0
  0
LINE
  8
3
 62
3
 10
-219.208
 20
-191.637
 30
0.0
 11
-219.494
 21
-191.494
 31
0.0
  0
LINE
  8
3
 62
3
 10
-219.494
 20
-191.494
 30
0.0
 11
-219.636
 21
-191.065
 31
0.0
  0
LINE
  8
3
 62
3
 10
-219.636
 20
-191.065
 30
0.0
 11
-219.636
 21
-189.637
 31
0.0
  0
LINE
  8
3
 62
3
 10
-219.636
 20
-189.637
 30
0.0
 11
-220.065
 21
-189.637
 31
0.0
  0
LINE
  8
3
 62
3
 10
-219.636
 20
-188.637
 30
0.0
 11
-219.636
 21
-189.637
 31
0.0
  0
LINE
  8
3
 62
3
 10
-219.636
 20
-189.637
 30
0.0
 11
-219.065
 21
-189.637
 31
0.0
  0
LINE
  8
3
 62
3
 10
-214.351
 20
-188.065
 30
0.0
 11
-214.636
 21
-188.351
 31
0.0
  0
LINE
  8
3
 62
3
 10
-214.636
 20
-188.351
 30
0.0
 11
-214.922
 21
-188.78
 31
0.0
  0
LINE
  8
3
 62
3
 10
-214.922
 20
-188.78
 30
0.0
 11
-215.208
 21
-189.351
 31
0.0
  0
LINE
  8
3
 62
3
 10
-215.208
 20
-189.351
 30
0.0
 11
-215.351
 21
-190.065
 31
0.0
  0
LINE
  8
3
 62
3
 10
-215.351
 20
-190.065
 30
0.0
 11
-215.351
 21
-190.637
 31
0.0
  0
LINE
  8
3
 62
3
 10
-215.351
 20
-190.637
 30
0.0
 11
-215.208
 21
-191.351
 31
0.0
  0
LINE
  8
3
 62
3
 10
-215.208
 20
-191.351
 30
0.0
 11
-214.922
 21
-191.922
 31
0.0
  0
LINE
  8
3
 62
3
 10
-214.922
 20
-191.922
 30
0.0
 11
-214.636
 21
-192.351
 31
0.0
  0
LINE
  8
3
 62
3
 10
-214.636
 20
-192.351
 30
0.0
 11
-214.351
 21
-192.637
 31
0.0
  0
LINE
  8
3
 62
3
 10
-213.208
 20
-189.351
 30
0.0
 11
-213.208
 21
-189.208
 31
0.0
  0
LINE
  8
3
 62
3
 10
-213.208
 20
-189.208
 30
0.0
 11
-213.065
 21
-188.922
 31
0.0
  0
LINE
  8
3
 62
3
 10
-213.065
 20
-188.922
 30
0.0
 11
-212.922
 21
-188.78
 31
0.0
  0
LINE
  8
3
 62
3
 10
-212.922
 20
-188.78
 30
0.0
 11
-212.636
 21
-188.637
 31
0.0
  0
LINE
  8
3
 62
3
 10
-212.636
 20
-188.637
 30
0.0
 11
-212.065
 21
-188.637
 31
0.0
  0
LINE
  8
3
 62
3
 10
-212.065
 20
-188.637
 30
0.0
 11
-211.779
 21
-188.78
 31
0.0
  0
LINE
  8
3
 62
3
 10
-211.779
 20
-188.78
 30
0.0
 11
-211.636
 21
-188.922
 31
0.0
  0
LINE
  8
3
 62
3
 10
-211.636
 20
-188.922
 30
0.0
 11
-211.494
 21
-189.208
 31
0.0
  0
LINE
  8
3
 62
3
 10
-211.494
 20
-189.208
 30
0.0
 11
-211.494
 21
-189.494
 31
0.0
  0
LINE
  8
3
 62
3
 10
-211.494
 20
-189.494
 30
0.0
 11
-211.636
 21
-189.78
 31
0.0
  0
LINE
  8
3
 62
3
 10
-211.636
 20
-189.78
 30
0.0
 11
-211.922
 21
-190.208
 31
0.0
  0
LINE
  8
3
 62
3
 10
-211.922
 20
-190.208
 30
0.0
 11
-213.351
 21
-191.637
 31
0.0
  0
LINE
  8
3
 62
3
 10
-213.351
 20
-191.637
 30
0.0
 11
-211.351
 21
-191.637
 31
0.0
  0
LINE
  8
3
 62
3
 10
-210.351
 20
-191.065
 30
0.0
 11
-210.494
 21
-190.351
 31
0.0
  0
LINE
  8
3
 62
3
 10
-210.494
 20
-190.351
 30
0.0
 11
-210.494
 21
-189.922
 31
0.0
  0
LINE
  8
3
 62
3
 10
-210.494
 20
-189.922
 30
0.0
 11
-210.351
 21
-189.208
 31
0.0
  0
LINE
  8
3
 62
3
 10
-210.351
 20
-189.208
 30
0.0
 11
-210.065
 21
-188.78
 31
0.0
  0
LINE
  8
3
 62
3
 10
-210.065
 20
-188.78
 30
0.0
 11
-209.636
 21
-188.637
 31
0.0
  0
LINE
  8
3
 62
3
 10
-209.636
 20
-188.637
 30
0.0
 11
-209.351
 21
-188.637
 31
0.0
  0
LINE
  8
3
 62
3
 10
-209.351
 20
-188.637
 30
0.0
 11
-208.922
 21
-188.78
 31
0.0
  0
LINE
  8
3
 62
3
 10
-208.922
 20
-188.78
 30
0.0
 11
-208.636
 21
-189.208
 31
0.0
  0
LINE
  8
3
 62
3
 10
-208.636
 20
-189.208
 30
0.0
 11
-208.494
 21
-189.922
 31
0.0
  0
LINE
  8
3
 62
3
 10
-208.494
 20
-189.922
 30
0.0
 11
-208.494
 21
-190.351
 31
0.0
  0
LINE
  8
3
 62
3
 10
-208.494
 20
-190.351
 30
0.0
 11
-208.636
 21
-191.065
 31
0.0
  0
LINE
  8
3
 62
3
 10
-208.636
 20
-191.065
 30
0.0
 11
-208.922
 21
-191.494
 31
0.0
  0
LINE
  8
3
 62
3
 10
-208.922
 20
-191.494
 30
0.0
 11
-209.351
 21
-191.637
 31
0.0
  0
LINE
  8
3
 62
3
 10
-209.351
 20
-191.637
 30
0.0
 11
-209.636
 21
-191.637
 31
0.0
  0
LINE
  8
3
 62
3
 10
-209.636
 20
-191.637
 30
0.0
 11
-210.065
 21
-191.494
 31
0.0
  0
LINE
  8
3
 62
3
 10
-210.065
 20
-191.494
 30
0.0
 11
-210.351
 21
-191.065
 31
0.0
  0
LINE
  8
3
 62
3
 10
-207.636
 20
-189.637
 30
0.0
 11
-206.85
 21
-190.637
 31
0.0
  0
LINE
  8
3
 62
3
 10
-206.85
 20
-190.637
 30
0.0
 11
-207.636
 21
-191.637
 31
0.0
  0
LINE
  8
3
 62
3
 10
-206.065
 20
-191.637
 30
0.0
 11
-206.85
 21
-190.637
 31
0.0
  0
LINE
  8
3
 62
3
 10
-206.85
 20
-190.637
 30
0.0
 11
-206.065
 21
-189.637
 31
0.0
  0
LINE
  8
3
 62
3
 10
-205.065
 20
-189.351
 30
0.0
 11
-205.065
 21
-189.208
 31
0.0
  0
LINE
  8
3
 62
3
 10
-205.065
 20
-189.208
 30
0.0
 11
-204.922
 21
-188.922
 31
0.0
  0
LINE
  8
3
 62
3
 10
-204.922
 20
-188.922
 30
0.0
 11
-204.779
 21
-188.78
 31
0.0
  0
LINE
  8
3
 62
3
 10
-204.779
 20
-188.78
 30
0.0
 11
-204.494
 21
-188.637
 31
0.0
  0
LINE
  8
3
 62
3
 10
-204.494
 20
-188.637
 30
0.0
 11
-203.922
 21
-188.637
 31
0.0
  0
LINE
  8
3
 62
3
 10
-203.922
 20
-188.637
 30
0.0
 11
-203.636
 21
-188.78
 31
0.0
  0
LINE
  8
3
 62
3
 10
-203.636
 20
-188.78
 30
0.0
 11
-203.494
 21
-188.922
 31
0.0
  0
LINE
  8
3
 62
3
 10
-203.494
 20
-188.922
 30
0.0
 11
-203.351
 21
-189.208
 31
0.0
  0
LINE
  8
3
 62
3
 10
-203.351
 20
-189.208
 30
0.0
 11
-203.351
 21
-189.494
 31
0.0
  0
LINE
  8
3
 62
3
 10
-203.351
 20
-189.494
 30
0.0
 11
-203.494
 21
-189.78
 31
0.0
  0
LINE
  8
3
 62
3
 10
-203.494
 20
-189.78
 30
0.0
 11
-203.779
 21
-190.208
 31
0.0
  0
LINE
  8
3
 62
3
 10
-203.779
 20
-190.208
 30
0.0
 11
-205.208
 21
-191.637
 31
0.0
  0
LINE
  8
3
 62
3
 10
-205.208
 20
-191.637
 30
0.0
 11
-203.208
 21
-191.637
 31
0.0
  0
LINE
  8
3
 62
3
 10
-201.208
 20
-191.637
 30
0.0
 11
-201.494
 21
-191.637
 31
0.0
  0
LINE
  8
3
 62
3
 10
-201.494
 20
-191.637
 30
0.0
 11
-201.922
 21
-191.494
 31
0.0
  0
LINE
  8
3
 62
3
 10
-201.922
 20
-191.494
 30
0.0
 11
-202.208
 21
-191.065
 31
0.0
  0
LINE
  8
3
 62
3
 10
-202.208
 20
-191.065
 30
0.0
 11
-202.351
 21
-190.351
 31
0.0
  0
LINE
  8
3
 62
3
 10
-202.351
 20
-190.351
 30
0.0
 11
-202.351
 21
-189.922
 31
0.0
  0
LINE
  8
3
 62
3
 10
-202.351
 20
-189.922
 30
0.0
 11
-202.208
 21
-189.208
 31
0.0
  0
LINE
  8
3
 62
3
 10
-202.208
 20
-189.208
 30
0.0
 11
-201.922
 21
-188.78
 31
0.0
  0
LINE
  8
3
 62
3
 10
-201.922
 20
-188.78
 30
0.0
 11
-201.494
 21
-188.637
 31
0.0
  0
LINE
  8
3
 62
3
 10
-201.494
 20
-188.637
 30
0.0
 11
-201.208
 21
-188.637
 31
0.0
  0
LINE
  8
3
 62
3
 10
-201.208
 20
-188.637
 30
0.0
 11
-200.779
 21
-188.78
 31
0.0
  0
LINE
  8
3
 62
3
 10
-200.779
 20
-188.78
 30
0.0
 11
-200.494
 21
-189.208
 31
0.0
  0
LINE
  8
3
 62
3
 10
-200.494
 20
-189.208
 30
0.0
 11
-200.351
 21
-189.922
 31
0.0
  0
LINE
  8
3
 62
3
 10
-200.351
 20
-189.922
 30
0.0
 11
-200.351
 21
-190.351
 31
0.0
  0
LINE
  8
3
 62
3
 10
-200.351
 20
-190.351
 30
0.0
 11
-200.494
 21
-191.065
 31
0.0
  0
LINE
  8
3
 62
3
 10
-200.494
 20
-191.065
 30
0.0
 11
-200.779
 21
-191.494
 31
0.0
  0
LINE
  8
3
 62
3
 10
-200.779
 20
-191.494
 30
0.0
 11
-201.208
 21
-191.637
 31
0.0
  0
LINE
  8
3
 62
3
 10
-199.494
 20
-191.637
 30
0.0
 11
-199.494
 21
-190.208
 31
0.0
  0
LINE
  8
3
 62
3
 10
-199.494
 20
-189.637
 30
0.0
 11
-199.494
 21
-190.208
 31
0.0
  0
LINE
  8
3
 62
3
 10
-199.494
 20
-190.208
 30
0.0
 11
-199.065
 21
-189.78
 31
0.0
  0
LINE
  8
3
 62
3
 10
-199.065
 20
-189.78
 30
0.0
 11
-198.779
 21
-189.637
 31
0.0
  0
LINE
  8
3
 62
3
 10
-198.779
 20
-189.637
 30
0.0
 11
-198.351
 21
-189.637
 31
0.0
  0
LINE
  8
3
 62
3
 10
-198.351
 20
-189.637
 30
0.0
 11
-198.065
 21
-189.78
 31
0.0
  0
LINE
  8
3
 62
3
 10
-198.065
 20
-189.78
 30
0.0
 11
-197.922
 21
-190.208
 31
0.0
  0
LINE
  8
3
 62
3
 10
-197.922
 20
-190.208
 30
0.0
 11
-197.494
 21
-189.78
 31
0.0
  0
LINE
  8
3
 62
3
 10
-197.494
 20
-189.78
 30
0.0
 11
-197.208
 21
-189.637
 31
0.0
  0
LINE
  8
3
 62
3
 10
-197.208
 20
-189.637
 30
0.0
 11
-196.779
 21
-189.637
 31
0.0
  0
LINE
  8
3
 62
3
 10
-196.779
 20
-189.637
 30
0.0
 11
-196.494
 21
-189.78
 31
0.0
  0
LINE
  8
3
 62
3
 10
-196.494
 20
-189.78
 30
0.0
 11
-196.351
 21
-190.208
 31
0.0
  0
LINE
  8
3
 62
3
 10
-196.351
 20
-190.208
 30
0.0
 11
-196.351
 21
-191.637
 31
0.0
  0
LINE
  8
3
 62
3
 10
-197.922
 20
-191.637
 30
0.0
 11
-197.922
 21
-190.208
 31
0.0
  0
LINE
  8
3
 62
3
 10
-195.208
 20
-191.637
 30
0.0
 11
-195.208
 21
-190.208
 31
0.0
  0
LINE
  8
3
 62
3
 10
-195.208
 20
-189.637
 30
0.0
 11
-195.208
 21
-190.208
 31
0.0
  0
LINE
  8
3
 62
3
 10
-195.208
 20
-190.208
 30
0.0
 11
-194.779
 21
-189.78
 31
0.0
  0
LINE
  8
3
 62
3
 10
-194.779
 20
-189.78
 30
0.0
 11
-194.494
 21
-189.637
 31
0.0
  0
LINE
  8
3
 62
3
 10
-194.494
 20
-189.637
 30
0.0
 11
-194.065
 21
-189.637
 31
0.0
  0
LINE
  8
3
 62
3
 10
-194.065
 20
-189.637
 30
0.0
 11
-193.779
 21
-189.78
 31
0.0
  0
LINE
  8
3
 62
3
 10
-193.779
 20
-189.78
 30
0.0
 11
-193.636
 21
-190.208
 31
0.0
  0
LINE
  8
3
 62
3
 10
-193.636
 20
-190.208
 30
0.0
 11
-193.208
 21
-189.78
 31
0.0
  0
LINE
  8
3
 62
3
 10
-193.208
 20
-189.78
 30
0.0
 11
-192.922
 21
-189.637
 31
0.0
  0
LINE
  8
3
 62
3
 10
-192.922
 20
-189.637
 30
0.0
 11
-192.494
 21
-189.637
 31
0.0
  0
LINE
  8
3
 62
3
 10
-192.494
 20
-189.637
 30
0.0
 11
-192.208
 21
-189.78
 31
0.0
  0
LINE
  8
3
 62
3
 10
-192.208
 20
-189.78
 30
0.0
 11
-192.065
 21
-190.208
 31
0.0
  0
LINE
  8
3
 62
3
 10
-192.065
 20
-190.208
 30
0.0
 11
-192.065
 21
-191.637
 31
0.0
  0
LINE
  8
3
 62
3
 10
-193.636
 20
-190.208
 30
0.0
 11
-193.636
 21
-191.637
 31
0.0
  0
LINE
  8
3
 62
3
 10
-190.922
 20
-192.637
 30
0.0
 11
-190.636
 21
-192.351
 31
0.0
  0
LINE
  8
3
 62
3
 10
-190.636
 20
-192.351
 30
0.0
 11
-190.351
 21
-191.922
 31
0.0
  0
LINE
  8
3
 62
3
 10
-190.351
 20
-191.922
 30
0.0
 11
-190.065
 21
-191.351
 31
0.0
  0
LINE
  8
3
 62
3
 10
-190.065
 20
-191.351
 30
0.0
 11
-189.922
 21
-190.637
 31
0.0
  0
LINE
  8
3
 62
3
 10
-189.922
 20
-190.637
 30
0.0
 11
-189.922
 21
-190.065
 31
0.0
  0
LINE
  8
3
 62
3
 10
-189.922
 20
-190.065
 30
0.0
 11
-190.065
 21
-189.351
 31
0.0
  0
LINE
  8
3
 62
3
 10
-190.065
 20
-189.351
 30
0.0
 11
-190.351
 21
-188.78
 31
0.0
  0
LINE
  8
3
 62
3
 10
-190.351
 20
-188.78
 30
0.0
 11
-190.636
 21
-188.351
 31
0.0
  0
LINE
  8
3
 62
3
 10
-190.636
 20
-188.351
 30
0.0
 11
-190.922
 21
-188.065
 31
0.0
  0
LINE
  8
3
 62
3
 10
-200.636
 20
-183.637
 30
0.0
 11
-200.922
 21
-183.637
 31
0.0
  0
LINE
  8
3
 62
3
 10
-200.922
 20
-183.637
 30
0.0
 11
-201.208
 21
-183.494
 31
0.0
  0
LINE
  8
3
 62
3
 10
-201.208
 20
-183.494
 30
0.0
 11
-201.351
 21
-183.065
 31
0.0
  0
LINE
  8
3
 62
3
 10
-201.351
 20
-183.065
 30
0.0
 11
-201.351
 21
-181.637
 31
0.0
  0
LINE
  8
3
 62
3
 10
-201.351
 20
-181.637
 30
0.0
 11
-201.779
 21
-181.637
 31
0.0
  0
LINE
  8
3
 62
3
 10
-201.351
 20
-180.637
 30
0.0
 11
-201.351
 21
-181.637
 31
0.0
  0
LINE
  8
3
 62
3
 10
-201.351
 20
-181.637
 30
0.0
 11
-200.779
 21
-181.637
 31
0.0
  0
LINE
  8
3
 62
3
 10
-198.922
 20
-179.208
 30
0.0
 11
-199.208
 21
-179.494
 31
0.0
  0
LINE
  8
3
 62
3
 10
-199.208
 20
-179.494
 30
0.0
 11
-199.494
 21
-179.637
 31
0.0
  0
LINE
  8
3
 62
3
 10
-199.494
 20
-179.637
 30
0.0
 11
-199.922
 21
-179.637
 31
0.0
  0
LINE
  8
3
 62
3
 10
-199.922
 20
-179.637
 30
0.0
 11
-200.208
 21
-179.494
 31
0.0
  0
LINE
  8
3
 62
3
 10
-200.208
 20
-179.494
 30
0.0
 11
-200.494
 21
-179.208
 31
0.0
  0
LINE
  8
3
 62
3
 10
-200.494
 20
-179.208
 30
0.0
 11
-200.636
 21
-178.78
 31
0.0
  0
LINE
  8
3
 62
3
 10
-200.636
 20
-178.78
 30
0.0
 11
-200.636
 21
-178.494
 31
0.0
  0
LINE
  8
3
 62
3
 10
-200.636
 20
-178.494
 30
0.0
 11
-200.494
 21
-178.065
 31
0.0
  0
LINE
  8
3
 62
3
 10
-200.494
 20
-178.065
 30
0.0
 11
-200.208
 21
-177.78
 31
0.0
  0
LINE
  8
3
 62
3
 10
-200.208
 20
-177.78
 30
0.0
 11
-199.922
 21
-177.637
 31
0.0
  0
LINE
  8
3
 62
3
 10
-199.922
 20
-177.637
 30
0.0
 11
-199.494
 21
-177.637
 31
0.0
  0
LINE
  8
3
 62
3
 10
-199.494
 20
-177.637
 30
0.0
 11
-199.208
 21
-177.78
 31
0.0
  0
LINE
  8
3
 62
3
 10
-199.208
 20
-177.78
 30
0.0
 11
-199.065
 21
-177.922
 31
0.0
  0
LINE
  8
3
 62
3
 10
-199.065
 20
-177.922
 30
0.0
 11
-198.922
 21
-178.208
 31
0.0
  0
LINE
  8
3
 62
3
 10
-198.922
 20
-178.208
 30
0.0
 11
-198.922
 21
-178.494
 31
0.0
  0
LINE
  8
3
 62
3
 10
-198.922
 20
-178.494
 30
0.0
 11
-200.636
 21
-178.494
 31
0.0
  0
LINE
  8
3
 62
3
 10
-201.208
 20
-177.637
 30
0.0
 11
-202.065
 21
-179.637
 31
0.0
  0
LINE
  8
3
 62
3
 10
-202.065
 20
-179.637
 30
0.0
 11
-202.922
 21
-177.637
 31
0.0
  0
LINE
  8
3
 62
3
 10
-203.636
 20
-177.637
 30
0.0
 11
-204.065
 21
-177.637
 31
0.0
  0
LINE
  8
3
 62
3
 10
-204.065
 20
-177.637
 30
0.0
 11
-204.351
 21
-177.78
 31
0.0
  0
LINE
  8
3
 62
3
 10
-204.351
 20
-177.78
 30
0.0
 11
-204.636
 21
-178.065
 31
0.0
  0
LINE
  8
3
 62
3
 10
-204.636
 20
-178.065
 30
0.0
 11
-204.779
 21
-178.494
 31
0.0
  0
LINE
  8
3
 62
3
 10
-204.779
 20
-178.494
 30
0.0
 11
-204.779
 21
-177.637
 31
0.0
  0
LINE
  8
3
 62
3
 10
-204.779
 20
-178.494
 30
0.0
 11
-204.779
 21
-179.637
 31
0.0
  0
LINE
  8
3
 62
3
 10
-205.779
 20
-179.208
 30
0.0
 11
-205.779
 21
-178.065
 31
0.0
  0
LINE
  8
3
 62
3
 10
-205.779
 20
-177.637
 30
0.0
 11
-205.779
 21
-178.065
 31
0.0
  0
LINE
  8
3
 62
3
 10
-205.779
 20
-178.065
 30
0.0
 11
-206.065
 21
-177.78
 31
0.0
  0
LINE
  8
3
 62
3
 10
-206.065
 20
-177.78
 30
0.0
 11
-206.351
 21
-177.637
 31
0.0
  0
LINE
  8
3
 62
3
 10
-206.351
 20
-177.637
 30
0.0
 11
-206.779
 21
-177.637
 31
0.0
  0
LINE
  8
3
 62
3
 10
-206.779
 20
-177.637
 30
0.0
 11
-207.065
 21
-177.78
 31
0.0
  0
LINE
  8
3
 62
3
 10
-207.065
 20
-177.78
 30
0.0
 11
-207.351
 21
-178.065
 31
0.0
  0
LINE
  8
3
 62
3
 10
-207.351
 20
-178.065
 30
0.0
 11
-207.494
 21
-178.494
 31
0.0
  0
LINE
  8
3
 62
3
 10
-207.494
 20
-178.494
 30
0.0
 11
-207.494
 21
-178.78
 31
0.0
  0
LINE
  8
3
 62
3
 10
-207.494
 20
-178.78
 30
0.0
 11
-207.351
 21
-179.208
 31
0.0
  0
LINE
  8
3
 62
3
 10
-207.351
 20
-179.208
 30
0.0
 11
-207.065
 21
-179.494
 31
0.0
  0
LINE
  8
3
 62
3
 10
-207.065
 20
-179.494
 30
0.0
 11
-206.779
 21
-179.637
 31
0.0
  0
LINE
  8
3
 62
3
 10
-206.779
 20
-179.637
 30
0.0
 11
-206.351
 21
-179.637
 31
0.0
  0
LINE
  8
3
 62
3
 10
-206.351
 20
-179.637
 30
0.0
 11
-206.065
 21
-179.494
 31
0.0
  0
LINE
  8
3
 62
3
 10
-206.065
 20
-179.494
 30
0.0
 11
-205.779
 21
-179.208
 31
0.0
  0
LINE
  8
3
 62
3
 10
-205.779
 20
-179.208
 30
0.0
 11
-205.779
 21
-179.637
 31
0.0
  0
LINE
  8
3
 62
3
 10
-208.351
 20
-178.065
 30
0.0
 11
-208.636
 21
-177.78
 31
0.0
  0
LINE
  8
3
 62
3
 10
-208.636
 20
-177.78
 30
0.0
 11
-208.922
 21
-177.637
 31
0.0
  0
LINE
  8
3
 62
3
 10
-208.922
 20
-177.637
 30
0.0
 11
-209.351
 21
-177.637
 31
0.0
  0
LINE
  8
3
 62
3
 10
-209.351
 20
-177.637
 30
0.0
 11
-209.636
 21
-177.78
 31
0.0
  0
LINE
  8
3
 62
3
 10
-209.636
 20
-177.78
 30
0.0
 11
-209.922
 21
-178.065
 31
0.0
  0
LINE
  8
3
 62
3
 10
-209.922
 20
-178.065
 30
0.0
 11
-210.065
 21
-178.494
 31
0.0
  0
LINE
  8
3
 62
3
 10
-210.065
 20
-178.494
 30
0.0
 11
-210.065
 21
-178.78
 31
0.0
  0
LINE
  8
3
 62
3
 10
-210.065
 20
-178.78
 30
0.0
 11
-209.922
 21
-179.208
 31
0.0
  0
LINE
  8
3
 62
3
 10
-209.922
 20
-179.208
 30
0.0
 11
-209.636
 21
-179.494
 31
0.0
  0
LINE
  8
3
 62
3
 10
-209.636
 20
-179.494
 30
0.0
 11
-209.351
 21
-179.637
 31
0.0
  0
LINE
  8
3
 62
3
 10
-209.351
 20
-179.637
 30
0.0
 11
-208.922
 21
-179.637
 31
0.0
  0
LINE
  8
3
 62
3
 10
-208.922
 20
-179.637
 30
0.0
 11
-208.636
 21
-179.494
 31
0.0
  0
LINE
  8
3
 62
3
 10
-208.636
 20
-179.494
 30
0.0
 11
-208.351
 21
-179.208
 31
0.0
  0
LINE
  8
3
 62
3
 10
-206.351
 20
-181.637
 30
0.0
 11
-206.779
 21
-181.637
 31
0.0
  0
LINE
  8
3
 62
3
 10
-206.779
 20
-181.637
 30
0.0
 11
-207.065
 21
-181.78
 31
0.0
  0
LINE
  8
3
 62
3
 10
-207.065
 20
-181.78
 30
0.0
 11
-207.351
 21
-182.065
 31
0.0
  0
LINE
  8
3
 62
3
 10
-207.351
 20
-182.065
 30
0.0
 11
-207.494
 21
-182.494
 31
0.0
  0
LINE
  8
3
 62
3
 10
-207.494
 20
-182.494
 30
0.0
 11
-207.494
 21
-181.637
 31
0.0
  0
LINE
  8
3
 62
3
 10
-207.494
 20
-182.494
 30
0.0
 11
-207.494
 21
-183.637
 31
0.0
  0
LINE
  8
3
 62
3
 10
-205.494
 20
-183.637
 30
0.0
 11
-205.494
 21
-181.637
 31
0.0
  0
LINE
  8
3
 62
3
 10
-205.494
 20
-180.922
 30
0.0
 11
-205.636
 21
-180.78
 31
0.0
  0
LINE
  8
3
 62
3
 10
-205.636
 20
-180.78
 30
0.0
 11
-205.494
 21
-180.637
 31
0.0
  0
LINE
  8
3
 62
3
 10
-205.494
 20
-180.637
 30
0.0
 11
-205.351
 21
-180.78
 31
0.0
  0
LINE
  8
3
 62
3
 10
-205.351
 20
-180.78
 30
0.0
 11
-205.494
 21
-180.922
 31
0.0
  0
LINE
  8
3
 62
3
 10
-204.494
 20
-181.637
 30
0.0
 11
-204.494
 21
-182.208
 31
0.0
  0
LINE
  8
3
 62
3
 10
-204.494
 20
-182.208
 30
0.0
 11
-204.065
 21
-181.78
 31
0.0
  0
LINE
  8
3
 62
3
 10
-204.065
 20
-181.78
 30
0.0
 11
-203.779
 21
-181.637
 31
0.0
  0
LINE
  8
3
 62
3
 10
-203.779
 20
-181.637
 30
0.0
 11
-203.351
 21
-181.637
 31
0.0
  0
LINE
  8
3
 62
3
 10
-203.351
 20
-181.637
 30
0.0
 11
-203.065
 21
-181.78
 31
0.0
  0
LINE
  8
3
 62
3
 10
-203.065
 20
-181.78
 30
0.0
 11
-202.922
 21
-182.208
 31
0.0
  0
LINE
  8
3
 62
3
 10
-202.922
 20
-182.208
 30
0.0
 11
-202.922
 21
-183.637
 31
0.0
  0
LINE
  8
3
 62
3
 10
-204.494
 20
-183.637
 30
0.0
 11
-204.494
 21
-182.208
 31
0.0
  0
LINE
  8
3
 62
3
 10
-210.208
 20
-184.637
 30
0.0
 11
-210.208
 21
-183.208
 31
0.0
  0
LINE
  8
3
 62
3
 10
-210.208
 20
-183.208
 30
0.0
 11
-210.208
 21
-182.065
 31
0.0
  0
LINE
  8
3
 62
3
 10
-210.208
 20
-182.065
 30
0.0
 11
-210.208
 21
-181.637
 31
0.0
  0
LINE
  8
3
 62
3
 10
-210.208
 20
-182.065
 30
0.0
 11
-209.922
 21
-181.78
 31
0.0
  0
LINE
  8
3
 62
3
 10
-209.922
 20
-181.78
 30
0.0
 11
-209.636
 21
-181.637
 31
0.0
  0
LINE
  8
3
 62
3
 10
-209.636
 20
-181.637
 30
0.0
 11
-209.208
 21
-181.637
 31
0.0
  0
LINE
  8
3
 62
3
 10
-209.208
 20
-181.637
 30
0.0
 11
-208.922
 21
-181.78
 31
0.0
  0
LINE
  8
3
 62
3
 10
-208.922
 20
-181.78
 30
0.0
 11
-208.636
 21
-182.065
 31
0.0
  0
LINE
  8
3
 62
3
 10
-208.636
 20
-182.065
 30
0.0
 11
-208.494
 21
-182.494
 31
0.0
  0
LINE
  8
3
 62
3
 10
-208.494
 20
-182.494
 30
0.0
 11
-208.494
 21
-182.78
 31
0.0
  0
LINE
  8
3
 62
3
 10
-208.494
 20
-182.78
 30
0.0
 11
-208.636
 21
-183.208
 31
0.0
  0
LINE
  8
3
 62
3
 10
-208.636
 20
-183.208
 30
0.0
 11
-208.922
 21
-183.494
 31
0.0
  0
LINE
  8
3
 62
3
 10
-208.922
 20
-183.494
 30
0.0
 11
-209.208
 21
-183.637
 31
0.0
  0
LINE
  8
3
 62
3
 10
-209.208
 20
-183.637
 30
0.0
 11
-209.636
 21
-183.637
 31
0.0
  0
LINE
  8
3
 62
3
 10
-209.636
 20
-183.637
 30
0.0
 11
-209.922
 21
-183.494
 31
0.0
  0
LINE
  8
3
 62
3
 10
-209.922
 20
-183.494
 30
0.0
 11
-210.208
 21
-183.208
 31
0.0
  0
LINE
  8
3
 62
3
 10
-206.922
 20
-175.637
 30
0.0
 11
-206.922
 21
-175.065
 31
0.0
  0
LINE
  8
3
 62
3
 10
-206.922
 20
-175.065
 30
0.0
 11
-207.351
 21
-175.494
 31
0.0
  0
LINE
  8
3
 62
3
 10
-207.351
 20
-175.494
 30
0.0
 11
-207.636
 21
-175.637
 31
0.0
  0
LINE
  8
3
 62
3
 10
-207.636
 20
-175.637
 30
0.0
 11
-208.065
 21
-175.637
 31
0.0
  0
LINE
  8
3
 62
3
 10
-208.065
 20
-175.637
 30
0.0
 11
-208.351
 21
-175.494
 31
0.0
  0
LINE
  8
3
 62
3
 10
-208.351
 20
-175.494
 30
0.0
 11
-208.494
 21
-175.065
 31
0.0
  0
LINE
  8
3
 62
3
 10
-208.494
 20
-175.065
 30
0.0
 11
-208.494
 21
-173.637
 31
0.0
  0
LINE
  8
3
 62
3
 10
-206.922
 20
-175.065
 30
0.0
 11
-206.922
 21
-173.637
 31
0.0
  0
LINE
  8
3
 62
3
 10
-205.351
 20
-172.637
 30
0.0
 11
-205.351
 21
-173.637
 31
0.0
  0
LINE
  8
3
 62
3
 10
-204.779
 20
-173.637
 30
0.0
 11
-205.351
 21
-173.637
 31
0.0
  0
LINE
  8
3
 62
3
 10
-204.636
 20
-175.637
 30
0.0
 11
-204.922
 21
-175.637
 31
0.0
  0
LINE
  8
3
 62
3
 10
-204.922
 20
-175.637
 30
0.0
 11
-205.208
 21
-175.494
 31
0.0
  0
LINE
  8
3
 62
3
 10
-205.208
 20
-175.494
 30
0.0
 11
-205.351
 21
-175.065
 31
0.0
  0
LINE
  8
3
 62
3
 10
-205.351
 20
-175.065
 30
0.0
 11
-205.351
 21
-173.637
 31
0.0
  0
LINE
  8
3
 62
3
 10
-205.351
 20
-173.637
 30
0.0
 11
-205.779
 21
-173.637
 31
0.0
  0
LINE
  8
3
 62
3
 10
-212.636
 20
-167.208
 30
0.0
 11
-212.922
 21
-167.494
 31
0.0
  0
LINE
  8
3
 62
3
 10
-212.922
 20
-167.494
 30
0.0
 11
-213.208
 21
-167.637
 31
0.0
  0
LINE
  8
3
 62
3
 10
-213.208
 20
-167.637
 30
0.0
 11
-213.636
 21
-167.637
 31
0.0
  0
LINE
  8
3
 62
3
 10
-213.636
 20
-167.637
 30
0.0
 11
-213.922
 21
-167.494
 31
0.0
  0
LINE
  8
3
 62
3
 10
-213.922
 20
-167.494
 30
0.0
 11
-214.208
 21
-167.208
 31
0.0
  0
LINE
  8
3
 62
3
 10
-214.208
 20
-167.208
 30
0.0
 11
-214.351
 21
-166.78
 31
0.0
  0
LINE
  8
3
 62
3
 10
-214.351
 20
-166.78
 30
0.0
 11
-214.351
 21
-166.494
 31
0.0
  0
LINE
  8
3
 62
3
 10
-214.351
 20
-166.494
 30
0.0
 11
-214.208
 21
-166.065
 31
0.0
  0
LINE
  8
3
 62
3
 10
-214.208
 20
-166.065
 30
0.0
 11
-213.922
 21
-165.78
 31
0.0
  0
LINE
  8
3
 62
3
 10
-213.922
 20
-165.78
 30
0.0
 11
-213.636
 21
-165.637
 31
0.0
  0
LINE
  8
3
 62
3
 10
-213.636
 20
-165.637
 30
0.0
 11
-213.208
 21
-165.637
 31
0.0
  0
LINE
  8
3
 62
3
 10
-213.208
 20
-165.637
 30
0.0
 11
-212.922
 21
-165.78
 31
0.0
  0
LINE
  8
3
 62
3
 10
-212.922
 20
-165.78
 30
0.0
 11
-212.779
 21
-165.922
 31
0.0
  0
LINE
  8
3
 62
3
 10
-212.779
 20
-165.922
 30
0.0
 11
-212.636
 21
-166.208
 31
0.0
  0
LINE
  8
3
 62
3
 10
-212.636
 20
-166.208
 30
0.0
 11
-212.636
 21
-166.494
 31
0.0
  0
LINE
  8
3
 62
3
 10
-212.636
 20
-166.494
 30
0.0
 11
-214.351
 21
-166.494
 31
0.0
  0
LINE
  8
3
 62
3
 10
-211.779
 20
-167.637
 30
0.0
 11
-211.779
 21
-166.208
 31
0.0
  0
LINE
  8
3
 62
3
 10
-210.208
 20
-167.637
 30
0.0
 11
-210.208
 21
-166.208
 31
0.0
  0
LINE
  8
3
 62
3
 10
-210.208
 20
-166.208
 30
0.0
 11
-210.351
 21
-165.78
 31
0.0
  0
LINE
  8
3
 62
3
 10
-210.351
 20
-165.78
 30
0.0
 11
-210.636
 21
-165.637
 31
0.0
  0
LINE
  8
3
 62
3
 10
-210.636
 20
-165.637
 30
0.0
 11
-211.065
 21
-165.637
 31
0.0
  0
LINE
  8
3
 62
3
 10
-211.065
 20
-165.637
 30
0.0
 11
-211.351
 21
-165.78
 31
0.0
  0
LINE
  8
3
 62
3
 10
-211.351
 20
-165.78
 30
0.0
 11
-211.779
 21
-166.208
 31
0.0
  0
LINE
  8
3
 62
3
 10
-211.779
 20
-166.208
 30
0.0
 11
-211.779
 21
-165.637
 31
0.0
  0
LINE
  8
3
 62
3
 10
-212.494
 20
-164.637
 30
0.0
 11
-212.494
 21
-163.208
 31
0.0
  0
LINE
  8
3
 62
3
 10
-212.494
 20
-163.208
 30
0.0
 11
-212.494
 21
-162.065
 31
0.0
  0
LINE
  8
3
 62
3
 10
-212.494
 20
-162.065
 30
0.0
 11
-212.494
 21
-161.637
 31
0.0
  0
LINE
  8
3
 62
3
 10
-212.494
 20
-162.065
 30
0.0
 11
-212.208
 21
-161.78
 31
0.0
  0
LINE
  8
3
 62
3
 10
-212.208
 20
-161.78
 30
0.0
 11
-211.922
 21
-161.637
 31
0.0
  0
LINE
  8
3
 62
3
 10
-211.922
 20
-161.637
 30
0.0
 11
-211.494
 21
-161.637
 31
0.0
  0
LINE
  8
3
 62
3
 10
-211.494
 20
-161.637
 30
0.0
 11
-211.208
 21
-161.78
 31
0.0
  0
LINE
  8
3
 62
3
 10
-211.208
 20
-161.78
 30
0.0
 11
-210.922
 21
-162.065
 31
0.0
  0
LINE
  8
3
 62
3
 10
-210.922
 20
-162.065
 30
0.0
 11
-210.779
 21
-162.494
 31
0.0
  0
LINE
  8
3
 62
3
 10
-210.779
 20
-162.494
 30
0.0
 11
-210.779
 21
-162.78
 31
0.0
  0
LINE
  8
3
 62
3
 10
-210.779
 20
-162.78
 30
0.0
 11
-210.922
 21
-163.208
 31
0.0
  0
LINE
  8
3
 62
3
 10
-210.922
 20
-163.208
 30
0.0
 11
-211.208
 21
-163.494
 31
0.0
  0
LINE
  8
3
 62
3
 10
-211.208
 20
-163.494
 30
0.0
 11
-211.494
 21
-163.637
 31
0.0
  0
LINE
  8
3
 62
3
 10
-211.494
 20
-163.637
 30
0.0
 11
-211.922
 21
-163.637
 31
0.0
  0
LINE
  8
3
 62
3
 10
-211.922
 20
-163.637
 30
0.0
 11
-212.208
 21
-163.494
 31
0.0
  0
LINE
  8
3
 62
3
 10
-212.208
 20
-163.494
 30
0.0
 11
-212.494
 21
-163.208
 31
0.0
  0
LINE
  8
3
 62
3
 10
-209.779
 20
-162.494
 30
0.0
 11
-209.779
 21
-163.637
 31
0.0
  0
LINE
  8
3
 62
3
 10
-209.065
 20
-164.065
 30
0.0
 11
-208.779
 21
-164.351
 31
0.0
  0
LINE
  8
3
 62
3
 10
-208.779
 20
-164.351
 30
0.0
 11
-208.494
 21
-164.78
 31
0.0
  0
LINE
  8
3
 62
3
 10
-208.494
 20
-164.78
 30
0.0
 11
-208.208
 21
-165.351
 31
0.0
  0
LINE
  8
3
 62
3
 10
-208.208
 20
-165.351
 30
0.0
 11
-208.065
 21
-166.065
 31
0.0
  0
LINE
  8
3
 62
3
 10
-208.065
 20
-166.065
 30
0.0
 11
-208.065
 21
-166.637
 31
0.0
  0
LINE
  8
3
 62
3
 10
-208.065
 20
-166.637
 30
0.0
 11
-208.208
 21
-167.351
 31
0.0
  0
LINE
  8
3
 62
3
 10
-208.208
 20
-167.351
 30
0.0
 11
-208.494
 21
-167.922
 31
0.0
  0
LINE
  8
3
 62
3
 10
-208.494
 20
-167.922
 30
0.0
 11
-208.779
 21
-168.351
 31
0.0
  0
LINE
  8
3
 62
3
 10
-208.779
 20
-168.351
 30
0.0
 11
-209.065
 21
-168.637
 31
0.0
  0
LINE
  8
3
 62
3
 10
-207.922
 20
-162.78
 30
0.0
 11
-207.922
 21
-162.494
 31
0.0
  0
LINE
  8
3
 62
3
 10
-207.922
 20
-162.494
 30
0.0
 11
-207.779
 21
-162.065
 31
0.0
  0
LINE
  8
3
 62
3
 10
-207.779
 20
-162.065
 30
0.0
 11
-207.494
 21
-161.78
 31
0.0
  0
LINE
  8
3
 62
3
 10
-207.494
 20
-161.78
 30
0.0
 11
-207.208
 21
-161.637
 31
0.0
  0
LINE
  8
3
 62
3
 10
-207.208
 20
-161.637
 30
0.0
 11
-206.779
 21
-161.637
 31
0.0
  0
LINE
  8
3
 62
3
 10
-206.779
 20
-161.637
 30
0.0
 11
-206.494
 21
-161.78
 31
0.0
  0
LINE
  8
3
 62
3
 10
-206.494
 20
-161.78
 30
0.0
 11
-206.208
 21
-162.065
 31
0.0
  0
LINE
  8
3
 62
3
 10
-206.208
 20
-162.065
 30
0.0
 11
-206.065
 21
-162.494
 31
0.0
  0
LINE
  8
3
 62
3
 10
-206.065
 20
-162.494
 30
0.0
 11
-206.065
 21
-162.78
 31
0.0
  0
LINE
  8
3
 62
3
 10
-206.065
 20
-162.78
 30
0.0
 11
-206.208
 21
-163.208
 31
0.0
  0
LINE
  8
3
 62
3
 10
-206.208
 20
-163.208
 30
0.0
 11
-206.494
 21
-163.494
 31
0.0
  0
LINE
  8
3
 62
3
 10
-206.494
 20
-163.494
 30
0.0
 11
-206.779
 21
-163.637
 31
0.0
  0
LINE
  8
3
 62
3
 10
-206.779
 20
-163.637
 30
0.0
 11
-207.208
 21
-163.637
 31
0.0
  0
LINE
  8
3
 62
3
 10
-207.208
 20
-163.637
 30
0.0
 11
-207.494
 21
-163.494
 31
0.0
  0
LINE
  8
3
 62
3
 10
-207.494
 20
-163.494
 30
0.0
 11
-207.706
 21
-163.282
 31
0.0
  0
LINE
  8
3
 62
3
 10
-207.706
 20
-163.282
 30
0.0
 11
-207.779
 21
-163.208
 31
0.0
  0
LINE
  8
3
 62
3
 10
-207.779
 20
-163.208
 30
0.0
 11
-207.922
 21
-162.78
 31
0.0
  0
LINE
  8
3
 62
3
 10
-208.636
 20
-161.637
 30
0.0
 11
-209.065
 21
-161.637
 31
0.0
  0
LINE
  8
3
 62
3
 10
-209.065
 20
-161.637
 30
0.0
 11
-209.351
 21
-161.78
 31
0.0
  0
LINE
  8
3
 62
3
 10
-209.351
 20
-161.78
 30
0.0
 11
-209.636
 21
-162.065
 31
0.0
  0
LINE
  8
3
 62
3
 10
-209.636
 20
-162.065
 30
0.0
 11
-209.779
 21
-162.494
 31
0.0
  0
LINE
  8
3
 62
3
 10
-209.779
 20
-162.494
 30
0.0
 11
-209.779
 21
-161.637
 31
0.0
  0
LINE
  8
3
 62
3
 10
-209.351
 20
-174.065
 30
0.0
 11
-209.636
 21
-173.78
 31
0.0
  0
LINE
  8
3
 62
3
 10
-209.636
 20
-173.78
 30
0.0
 11
-209.922
 21
-173.637
 31
0.0
  0
LINE
  8
3
 62
3
 10
-209.922
 20
-173.637
 30
0.0
 11
-210.351
 21
-173.637
 31
0.0
  0
LINE
  8
3
 62
3
 10
-210.351
 20
-173.637
 30
0.0
 11
-210.636
 21
-173.78
 31
0.0
  0
LINE
  8
3
 62
3
 10
-210.636
 20
-173.78
 30
0.0
 11
-210.922
 21
-174.065
 31
0.0
  0
LINE
  8
3
 62
3
 10
-210.922
 20
-174.065
 30
0.0
 11
-211.065
 21
-174.494
 31
0.0
  0
LINE
  8
3
 62
3
 10
-211.065
 20
-174.494
 30
0.0
 11
-211.065
 21
-174.78
 31
0.0
  0
LINE
  8
3
 62
3
 10
-211.065
 20
-174.78
 30
0.0
 11
-210.922
 21
-175.208
 31
0.0
  0
LINE
  8
3
 62
3
 10
-210.922
 20
-175.208
 30
0.0
 11
-210.636
 21
-175.494
 31
0.0
  0
LINE
  8
3
 62
3
 10
-210.636
 20
-175.494
 30
0.0
 11
-210.351
 21
-175.637
 31
0.0
  0
LINE
  8
3
 62
3
 10
-210.351
 20
-175.637
 30
0.0
 11
-209.922
 21
-175.637
 31
0.0
  0
LINE
  8
3
 62
3
 10
-209.922
 20
-175.637
 30
0.0
 11
-209.636
 21
-175.494
 31
0.0
  0
LINE
  8
3
 62
3
 10
-209.636
 20
-175.494
 30
0.0
 11
-209.351
 21
-175.208
 31
0.0
  0
LINE
  8
3
 62
3
 10
-215.208
 20
-166.065
 30
0.0
 11
-215.351
 21
-165.78
 31
0.0
  0
LINE
  8
3
 62
3
 10
-215.351
 20
-165.78
 30
0.0
 11
-215.779
 21
-165.637
 31
0.0
  0
LINE
  8
3
 62
3
 10
-215.779
 20
-165.637
 30
0.0
 11
-216.208
 21
-165.637
 31
0.0
  0
LINE
  8
3
 62
3
 10
-216.208
 20
-165.637
 30
0.0
 11
-216.636
 21
-165.78
 31
0.0
  0
LINE
  8
3
 62
3
 10
-216.636
 20
-165.78
 30
0.0
 11
-216.779
 21
-166.065
 31
0.0
  0
LINE
  8
3
 62
3
 10
-216.779
 20
-166.065
 30
0.0
 11
-216.636
 21
-166.351
 31
0.0
  0
LINE
  8
3
 62
3
 10
-216.636
 20
-166.351
 30
0.0
 11
-216.351
 21
-166.494
 31
0.0
  0
LINE
  8
3
 62
3
 10
-216.351
 20
-166.494
 30
0.0
 11
-215.636
 21
-166.637
 31
0.0
  0
LINE
  8
3
 62
3
 10
-215.636
 20
-166.637
 30
0.0
 11
-215.351
 21
-166.78
 31
0.0
  0
LINE
  8
3
 62
3
 10
-215.351
 20
-166.78
 30
0.0
 11
-215.208
 21
-167.065
 31
0.0
  0
LINE
  8
3
 62
3
 10
-215.208
 20
-167.065
 30
0.0
 11
-215.208
 21
-167.208
 31
0.0
  0
LINE
  8
3
 62
3
 10
-215.208
 20
-167.208
 30
0.0
 11
-215.351
 21
-167.494
 31
0.0
  0
LINE
  8
3
 62
3
 10
-215.351
 20
-167.494
 30
0.0
 11
-215.779
 21
-167.637
 31
0.0
  0
LINE
  8
3
 62
3
 10
-215.779
 20
-167.637
 30
0.0
 11
-216.208
 21
-167.637
 31
0.0
  0
LINE
  8
3
 62
3
 10
-216.208
 20
-167.637
 30
0.0
 11
-216.636
 21
-167.494
 31
0.0
  0
LINE
  8
3
 62
3
 10
-216.636
 20
-167.494
 30
0.0
 11
-216.779
 21
-167.208
 31
0.0
  0
LINE
  8
3
 62
3
 10
-217.494
 20
-165.637
 30
0.0
 11
-217.922
 21
-165.637
 31
0.0
  0
LINE
  8
3
 62
3
 10
-217.922
 20
-165.637
 30
0.0
 11
-218.208
 21
-165.78
 31
0.0
  0
LINE
  8
3
 62
3
 10
-218.208
 20
-165.78
 30
0.0
 11
-218.494
 21
-166.065
 31
0.0
  0
LINE
  8
3
 62
3
 10
-218.494
 20
-166.065
 30
0.0
 11
-218.636
 21
-166.494
 31
0.0
  0
LINE
  8
3
 62
3
 10
-218.636
 20
-166.494
 30
0.0
 11
-218.636
 21
-165.637
 31
0.0
  0
LINE
  8
3
 62
3
 10
-218.636
 20
-166.494
 30
0.0
 11
-218.636
 21
-167.637
 31
0.0
  0
LINE
  8
3
 62
3
 10
-219.494
 20
-167.208
 30
0.0
 11
-219.779
 21
-167.494
 31
0.0
  0
LINE
  8
3
 62
3
 10
-219.779
 20
-167.494
 30
0.0
 11
-220.065
 21
-167.637
 31
0.0
  0
LINE
  8
3
 62
3
 10
-220.065
 20
-167.637
 30
0.0
 11
-220.494
 21
-167.637
 31
0.0
  0
LINE
  8
3
 62
3
 10
-220.494
 20
-167.637
 30
0.0
 11
-220.779
 21
-167.494
 31
0.0
  0
LINE
  8
3
 62
3
 10
-220.779
 20
-167.494
 30
0.0
 11
-221.065
 21
-167.208
 31
0.0
  0
LINE
  8
3
 62
3
 10
-221.065
 20
-167.208
 30
0.0
 11
-221.208
 21
-166.78
 31
0.0
  0
LINE
  8
3
 62
3
 10
-221.208
 20
-166.78
 30
0.0
 11
-221.208
 21
-166.494
 31
0.0
  0
LINE
  8
3
 62
3
 10
-221.208
 20
-166.494
 30
0.0
 11
-221.065
 21
-166.065
 31
0.0
  0
LINE
  8
3
 62
3
 10
-221.065
 20
-166.065
 30
0.0
 11
-220.779
 21
-165.78
 31
0.0
  0
LINE
  8
3
 62
3
 10
-220.779
 20
-165.78
 30
0.0
 11
-220.494
 21
-165.637
 31
0.0
  0
LINE
  8
3
 62
3
 10
-220.494
 20
-165.637
 30
0.0
 11
-220.065
 21
-165.637
 31
0.0
  0
LINE
  8
3
 62
3
 10
-220.065
 20
-165.637
 30
0.0
 11
-219.779
 21
-165.78
 31
0.0
  0
LINE
  8
3
 62
3
 10
-219.779
 20
-165.78
 30
0.0
 11
-219.636
 21
-165.922
 31
0.0
  0
LINE
  8
3
 62
3
 10
-219.636
 20
-165.922
 30
0.0
 11
-219.494
 21
-166.208
 31
0.0
  0
LINE
  8
3
 62
3
 10
-219.494
 20
-166.208
 30
0.0
 11
-219.494
 21
-166.494
 31
0.0
  0
LINE
  8
3
 62
3
 10
-219.494
 20
-166.494
 30
0.0
 11
-221.208
 21
-166.494
 31
0.0
  0
LINE
  8
3
 62
3
 10
-222.208
 20
-166.065
 30
0.0
 11
-222.208
 21
-167.208
 31
0.0
  0
LINE
  8
3
 62
3
 10
-222.208
 20
-167.637
 30
0.0
 11
-222.208
 21
-167.208
 31
0.0
  0
LINE
  8
3
 62
3
 10
-222.208
 20
-167.208
 30
0.0
 11
-222.494
 21
-167.494
 31
0.0
  0
LINE
  8
3
 62
3
 10
-222.494
 20
-167.494
 30
0.0
 11
-222.779
 21
-167.637
 31
0.0
  0
LINE
  8
3
 62
3
 10
-222.779
 20
-167.637
 30
0.0
 11
-223.208
 21
-167.637
 31
0.0
  0
LINE
  8
3
 62
3
 10
-223.208
 20
-167.637
 30
0.0
 11
-223.494
 21
-167.494
 31
0.0
  0
LINE
  8
3
 62
3
 10
-223.494
 20
-167.494
 30
0.0
 11
-223.779
 21
-167.208
 31
0.0
  0
LINE
  8
3
 62
3
 10
-223.779
 20
-167.208
 30
0.0
 11
-223.922
 21
-166.78
 31
0.0
  0
LINE
  8
3
 62
3
 10
-223.922
 20
-166.78
 30
0.0
 11
-223.922
 21
-166.494
 31
0.0
  0
LINE
  8
3
 62
3
 10
-223.922
 20
-166.494
 30
0.0
 11
-223.779
 21
-166.065
 31
0.0
  0
LINE
  8
3
 62
3
 10
-223.779
 20
-166.065
 30
0.0
 11
-223.494
 21
-165.78
 31
0.0
  0
LINE
  8
3
 62
3
 10
-223.494
 20
-165.78
 30
0.0
 11
-223.208
 21
-165.637
 31
0.0
  0
LINE
  8
3
 62
3
 10
-223.208
 20
-165.637
 30
0.0
 11
-222.779
 21
-165.637
 31
0.0
  0
LINE
  8
3
 62
3
 10
-222.779
 20
-165.637
 30
0.0
 11
-222.494
 21
-165.78
 31
0.0
  0
LINE
  8
3
 62
3
 10
-222.494
 20
-165.78
 30
0.0
 11
-222.208
 21
-166.065
 31
0.0
  0
LINE
  8
3
 62
3
 10
-222.208
 20
-166.065
 30
0.0
 11
-222.208
 21
-164.637
 31
0.0
  0
LINE
  8
3
 62
3
 10
-225.636
 20
-165.637
 30
0.0
 11
-225.494
 21
-165.637
 31
0.0
  0
LINE
  8
3
 62
3
 10
-225.494
 20
-165.637
 30
0.0
 11
-225.208
 21
-165.78
 31
0.0
  0
LINE
  8
3
 62
3
 10
-225.208
 20
-165.78
 30
0.0
 11
-224.922
 21
-166.065
 31
0.0
  0
LINE
  8
3
 62
3
 10
-224.922
 20
-166.065
 30
0.0
 11
-224.779
 21
-166.494
 31
0.0
  0
LINE
  8
3
 62
3
 10
-224.779
 20
-166.494
 30
0.0
 11
-224.779
 21
-166.78
 31
0.0
  0
LINE
  8
3
 62
3
 10
-224.779
 20
-166.78
 30
0.0
 11
-224.922
 21
-167.208
 31
0.0
  0
LINE
  8
3
 62
3
 10
-224.922
 20
-167.208
 30
0.0
 11
-225.208
 21
-167.494
 31
0.0
  0
LINE
  8
3
 62
3
 10
-225.208
 20
-167.494
 30
0.0
 11
-225.494
 21
-167.637
 31
0.0
  0
LINE
  8
3
 62
3
 10
-225.494
 20
-167.637
 30
0.0
 11
-225.922
 21
-167.637
 31
0.0
  0
LINE
  8
3
 62
3
 10
-225.922
 20
-167.637
 30
0.0
 11
-226.208
 21
-167.494
 31
0.0
  0
LINE
  8
3
 62
3
 10
-226.208
 20
-167.494
 30
0.0
 11
-226.494
 21
-167.208
 31
0.0
  0
LINE
  8
3
 62
3
 10
-226.494
 20
-167.208
 30
0.0
 11
-226.636
 21
-166.78
 31
0.0
  0
LINE
  8
3
 62
3
 10
-226.636
 20
-166.78
 30
0.0
 11
-226.636
 21
-166.494
 31
0.0
  0
LINE
  8
3
 62
3
 10
-226.636
 20
-166.494
 30
0.0
 11
-226.494
 21
-166.065
 31
0.0
  0
LINE
  8
3
 62
3
 10
-226.494
 20
-166.065
 30
0.0
 11
-226.208
 21
-165.78
 31
0.0
  0
LINE
  8
3
 62
3
 10
-226.208
 20
-165.78
 30
0.0
 11
-225.922
 21
-165.637
 31
0.0
  0
LINE
  8
3
 62
3
 10
-225.922
 20
-165.637
 30
0.0
 11
-225.636
 21
-165.637
 31
0.0
  0
LINE
  8
3
 62
3
 10
-228.494
 20
-167.637
 30
0.0
 11
-228.494
 21
-166.494
 31
0.0
  0
LINE
  8
3
 62
3
 10
-227.351
 20
-165.637
 30
0.0
 11
-227.779
 21
-165.637
 31
0.0
  0
LINE
  8
3
 62
3
 10
-227.779
 20
-165.637
 30
0.0
 11
-228.065
 21
-165.78
 31
0.0
  0
LINE
  8
3
 62
3
 10
-228.065
 20
-165.78
 30
0.0
 11
-228.351
 21
-166.065
 31
0.0
  0
LINE
  8
3
 62
3
 10
-228.351
 20
-166.065
 30
0.0
 11
-228.494
 21
-166.494
 31
0.0
  0
LINE
  8
3
 62
3
 10
-228.494
 20
-166.494
 30
0.0
 11
-228.494
 21
-165.637
 31
0.0
  0
LINE
  8
3
 62
3
 10
-229.627
 20
-166.369
 30
0.0
 11
-229.494
 21
-166.637
 31
0.0
  0
LINE
  8
3
 62
3
 10
-229.494
 20
-166.637
 30
0.0
 11
-229.494
 21
-167.065
 31
0.0
  0
LINE
  8
3
 62
3
 10
-229.494
 20
-167.065
 30
0.0
 11
-229.636
 21
-167.351
 31
0.0
  0
LINE
  8
3
 62
3
 10
-229.636
 20
-167.351
 30
0.0
 11
-229.779
 21
-167.494
 31
0.0
  0
LINE
  8
3
 62
3
 10
-229.779
 20
-167.494
 30
0.0
 11
-230.208
 21
-167.637
 31
0.0
  0
LINE
  8
3
 62
3
 10
-230.208
 20
-167.637
 30
0.0
 11
-231.494
 21
-167.637
 31
0.0
  0
LINE
  8
3
 62
3
 10
-231.494
 20
-167.637
 30
0.0
 11
-231.494
 21
-167.208
 31
0.0
  0
LINE
  8
3
 62
3
 10
-231.494
 20
-167.208
 30
0.0
 11
-231.494
 21
-164.637
 31
0.0
  0
LINE
  8
3
 62
3
 10
-231.494
 20
-164.637
 30
0.0
 11
-230.208
 21
-164.637
 31
0.0
  0
LINE
  8
3
 62
3
 10
-230.208
 20
-164.637
 30
0.0
 11
-229.779
 21
-164.78
 31
0.0
  0
LINE
  8
3
 62
3
 10
-229.779
 20
-164.78
 30
0.0
 11
-229.636
 21
-164.922
 31
0.0
  0
LINE
  8
3
 62
3
 10
-229.636
 20
-164.922
 30
0.0
 11
-229.494
 21
-165.208
 31
0.0
  0
LINE
  8
3
 62
3
 10
-229.494
 20
-165.208
 30
0.0
 11
-229.494
 21
-165.494
 31
0.0
  0
LINE
  8
3
 62
3
 10
-229.494
 20
-165.494
 30
0.0
 11
-229.636
 21
-165.78
 31
0.0
  0
LINE
  8
3
 62
3
 10
-229.636
 20
-165.78
 30
0.0
 11
-229.779
 21
-165.922
 31
0.0
  0
LINE
  8
3
 62
3
 10
-229.779
 20
-165.922
 30
0.0
 11
-230.208
 21
-166.065
 31
0.0
  0
LINE
  8
3
 62
3
 10
-230.208
 20
-166.065
 30
0.0
 11
-229.779
 21
-166.208
 31
0.0
  0
LINE
  8
3
 62
3
 10
-229.779
 20
-166.208
 30
0.0
 11
-229.636
 21
-166.351
 31
0.0
  0
LINE
  8
3
 62
3
 10
-229.636
 20
-166.351
 30
0.0
 11
-229.627
 21
-166.369
 31
0.0
  0
LINE
  8
3
 62
3
 10
-230.208
 20
-166.065
 30
0.0
 11
-231.494
 21
-166.065
 31
0.0
  0
LINE
  8
3
 62
3
 10
-231.636
 20
-163.208
 30
0.0
 11
-231.922
 21
-163.494
 31
0.0
  0
LINE
  8
3
 62
3
 10
-231.922
 20
-163.494
 30
0.0
 11
-232.208
 21
-163.637
 31
0.0
  0
LINE
  8
3
 62
3
 10
-232.208
 20
-163.637
 30
0.0
 11
-232.636
 21
-163.637
 31
0.0
  0
LINE
  8
3
 62
3
 10
-232.636
 20
-163.637
 30
0.0
 11
-232.922
 21
-163.494
 31
0.0
  0
LINE
  8
3
 62
3
 10
-232.922
 20
-163.494
 30
0.0
 11
-233.208
 21
-163.208
 31
0.0
  0
LINE
  8
3
 62
3
 10
-233.208
 20
-163.208
 30
0.0
 11
-233.351
 21
-162.78
 31
0.0
  0
LINE
  8
3
 62
3
 10
-233.351
 20
-162.78
 30
0.0
 11
-233.351
 21
-162.494
 31
0.0
  0
LINE
  8
3
 62
3
 10
-233.351
 20
-162.494
 30
0.0
 11
-233.208
 21
-162.065
 31
0.0
  0
LINE
  8
3
 62
3
 10
-233.208
 20
-162.065
 30
0.0
 11
-232.922
 21
-161.78
 31
0.0
  0
LINE
  8
3
 62
3
 10
-232.922
 20
-161.78
 30
0.0
 11
-232.636
 21
-161.637
 31
0.0
  0
LINE
  8
3
 62
3
 10
-232.636
 20
-161.637
 30
0.0
 11
-232.208
 21
-161.637
 31
0.0
  0
LINE
  8
3
 62
3
 10
-232.208
 20
-161.637
 30
0.0
 11
-231.922
 21
-161.78
 31
0.0
  0
LINE
  8
3
 62
3
 10
-231.922
 20
-161.78
 30
0.0
 11
-231.636
 21
-162.065
 31
0.0
  0
LINE
  8
3
 62
3
 10
-231.636
 20
-161.637
 30
0.0
 11
-231.636
 21
-163.922
 31
0.0
  0
LINE
  8
3
 62
3
 10
-231.636
 20
-163.922
 30
0.0
 11
-231.779
 21
-164.351
 31
0.0
  0
LINE
  8
3
 62
3
 10
-231.779
 20
-164.351
 30
0.0
 11
-231.922
 21
-164.494
 31
0.0
  0
LINE
  8
3
 62
3
 10
-231.922
 20
-164.494
 30
0.0
 11
-232.208
 21
-164.637
 31
0.0
  0
LINE
  8
3
 62
3
 10
-232.208
 20
-164.637
 30
0.0
 11
-232.636
 21
-164.637
 31
0.0
  0
LINE
  8
3
 62
3
 10
-232.636
 20
-164.637
 30
0.0
 11
-232.922
 21
-164.494
 31
0.0
  0
LINE
  8
3
 62
3
 10
-235.208
 20
-163.637
 30
0.0
 11
-235.208
 21
-162.494
 31
0.0
  0
LINE
  8
3
 62
3
 10
-236.065
 20
-162.494
 30
0.0
 11
-236.208
 21
-162.922
 31
0.0
  0
LINE
  8
3
 62
3
 10
-236.208
 20
-162.922
 30
0.0
 11
-236.351
 21
-163.208
 31
0.0
  0
LINE
  8
3
 62
3
 10
-236.351
 20
-163.208
 30
0.0
 11
-236.636
 21
-163.494
 31
0.0
  0
LINE
  8
3
 62
3
 10
-236.636
 20
-163.494
 30
0.0
 11
-236.922
 21
-163.637
 31
0.0
  0
LINE
  8
3
 62
3
 10
-236.922
 20
-163.637
 30
0.0
 11
-237.494
 21
-163.637
 31
0.0
  0
LINE
  8
3
 62
3
 10
-237.494
 20
-163.637
 30
0.0
 11
-237.779
 21
-163.494
 31
0.0
  0
LINE
  8
3
 62
3
 10
-237.779
 20
-163.494
 30
0.0
 11
-238.065
 21
-163.208
 31
0.0
  0
LINE
  8
3
 62
3
 10
-238.065
 20
-163.208
 30
0.0
 11
-238.208
 21
-162.922
 31
0.0
  0
LINE
  8
3
 62
3
 10
-238.208
 20
-162.922
 30
0.0
 11
-238.351
 21
-162.494
 31
0.0
  0
LINE
  8
3
 62
3
 10
-238.351
 20
-162.494
 30
0.0
 11
-238.351
 21
-161.78
 31
0.0
  0
LINE
  8
3
 62
3
 10
-238.351
 20
-161.78
 30
0.0
 11
-238.208
 21
-161.351
 31
0.0
  0
LINE
  8
3
 62
3
 10
-238.208
 20
-161.351
 30
0.0
 11
-238.065
 21
-161.065
 31
0.0
  0
LINE
  8
3
 62
3
 10
-238.065
 20
-161.065
 30
0.0
 11
-237.779
 21
-160.78
 31
0.0
  0
LINE
  8
3
 62
3
 10
-237.779
 20
-160.78
 30
0.0
 11
-237.494
 21
-160.637
 31
0.0
  0
LINE
  8
3
 62
3
 10
-237.494
 20
-160.637
 30
0.0
 11
-236.922
 21
-160.637
 31
0.0
  0
LINE
  8
3
 62
3
 10
-236.922
 20
-160.637
 30
0.0
 11
-236.636
 21
-160.78
 31
0.0
  0
LINE
  8
3
 62
3
 10
-236.636
 20
-160.78
 30
0.0
 11
-236.351
 21
-161.065
 31
0.0
  0
LINE
  8
3
 62
3
 10
-236.351
 20
-161.065
 30
0.0
 11
-236.208
 21
-161.351
 31
0.0
  0
LINE
  8
3
 62
3
 10
-236.208
 20
-161.351
 30
0.0
 11
-236.065
 21
-161.78
 31
0.0
  0
LINE
  8
3
 62
3
 10
-236.065
 20
-161.78
 30
0.0
 11
-236.065
 21
-162.494
 31
0.0
  0
LINE
  8
3
 62
3
 10
-235.208
 20
-161.637
 30
0.0
 11
-235.208
 21
-162.494
 31
0.0
  0
LINE
  8
3
 62
3
 10
-235.208
 20
-162.494
 30
0.0
 11
-235.065
 21
-162.065
 31
0.0
  0
LINE
  8
3
 62
3
 10
-235.065
 20
-162.065
 30
0.0
 11
-234.779
 21
-161.78
 31
0.0
  0
LINE
  8
3
 62
3
 10
-234.779
 20
-161.78
 30
0.0
 11
-234.494
 21
-161.637
 31
0.0
  0
LINE
  8
3
 62
3
 10
-234.494
 20
-161.637
 30
0.0
 11
-234.065
 21
-161.637
 31
0.0
  0
LINE
  8
3
 62
3
 10
-237.779
 20
-165.637
 30
0.0
 11
-238.351
 21
-165.637
 31
0.0
  0
LINE
  8
3
 62
3
 10
-238.351
 20
-165.637
 30
0.0
 11
-238.351
 21
-164.637
 31
0.0
  0
LINE
  8
3
 62
3
 10
-239.922
 20
-164.637
 30
0.0
 11
-239.922
 21
-167.637
 31
0.0
  0
LINE
  8
3
 62
3
 10
-240.922
 20
-167.208
 30
0.0
 11
-240.922
 21
-166.065
 31
0.0
  0
LINE
  8
3
 62
3
 10
-240.922
 20
-165.637
 30
0.0
 11
-240.922
 21
-166.065
 31
0.0
  0
LINE
  8
3
 62
3
 10
-240.922
 20
-166.065
 30
0.0
 11
-241.208
 21
-165.78
 31
0.0
  0
LINE
  8
3
 62
3
 10
-241.208
 20
-165.78
 30
0.0
 11
-241.494
 21
-165.637
 31
0.0
  0
LINE
  8
3
 62
3
 10
-241.494
 20
-165.637
 30
0.0
 11
-241.922
 21
-165.637
 31
0.0
  0
LINE
  8
3
 62
3
 10
-241.922
 20
-165.637
 30
0.0
 11
-242.208
 21
-165.78
 31
0.0
  0
LINE
  8
3
 62
3
 10
-242.208
 20
-165.78
 30
0.0
 11
-242.494
 21
-166.065
 31
0.0
  0
LINE
  8
3
 62
3
 10
-242.494
 20
-166.065
 30
0.0
 11
-242.636
 21
-166.494
 31
0.0
  0
LINE
  8
3
 62
3
 10
-242.636
 20
-166.494
 30
0.0
 11
-242.636
 21
-166.78
 31
0.0
  0
LINE
  8
3
 62
3
 10
-242.636
 20
-166.78
 30
0.0
 11
-242.494
 21
-167.208
 31
0.0
  0
LINE
  8
3
 62
3
 10
-242.494
 20
-167.208
 30
0.0
 11
-242.208
 21
-167.494
 31
0.0
  0
LINE
  8
3
 62
3
 10
-242.208
 20
-167.494
 30
0.0
 11
-241.922
 21
-167.637
 31
0.0
  0
LINE
  8
3
 62
3
 10
-241.922
 20
-167.637
 30
0.0
 11
-241.494
 21
-167.637
 31
0.0
  0
LINE
  8
3
 62
3
 10
-241.494
 20
-167.637
 30
0.0
 11
-241.208
 21
-167.494
 31
0.0
  0
LINE
  8
3
 62
3
 10
-241.208
 20
-167.494
 30
0.0
 11
-240.922
 21
-167.208
 31
0.0
  0
LINE
  8
3
 62
3
 10
-240.922
 20
-167.208
 30
0.0
 11
-240.922
 21
-167.637
 31
0.0
  0
LINE
  8
3
 62
3
 10
-238.779
 20
-165.637
 30
0.0
 11
-238.351
 21
-165.637
 31
0.0
  0
LINE
  8
3
 62
3
 10
-238.351
 20
-165.637
 30
0.0
 11
-238.351
 21
-167.065
 31
0.0
  0
LINE
  8
3
 62
3
 10
-238.351
 20
-167.065
 30
0.0
 11
-238.208
 21
-167.494
 31
0.0
  0
LINE
  8
3
 62
3
 10
-238.208
 20
-167.494
 30
0.0
 11
-237.922
 21
-167.637
 31
0.0
  0
LINE
  8
3
 62
3
 10
-237.922
 20
-167.637
 30
0.0
 11
-237.636
 21
-167.637
 31
0.0
  0
LINE
  8
3
 62
3
 10
-236.779
 20
-166.494
 30
0.0
 11
-235.065
 21
-166.494
 31
0.0
  0
LINE
  8
3
 62
3
 10
-235.065
 20
-166.494
 30
0.0
 11
-235.065
 21
-166.208
 31
0.0
  0
LINE
  8
3
 62
3
 10
-235.065
 20
-166.208
 30
0.0
 11
-235.208
 21
-165.922
 31
0.0
  0
LINE
  8
3
 62
3
 10
-235.208
 20
-165.922
 30
0.0
 11
-235.351
 21
-165.78
 31
0.0
  0
LINE
  8
3
 62
3
 10
-235.351
 20
-165.78
 30
0.0
 11
-235.636
 21
-165.637
 31
0.0
  0
LINE
  8
3
 62
3
 10
-235.636
 20
-165.637
 30
0.0
 11
-236.065
 21
-165.637
 31
0.0
  0
LINE
  8
3
 62
3
 10
-236.065
 20
-165.637
 30
0.0
 11
-236.351
 21
-165.78
 31
0.0
  0
LINE
  8
3
 62
3
 10
-236.351
 20
-165.78
 30
0.0
 11
-236.636
 21
-166.065
 31
0.0
  0
LINE
  8
3
 62
3
 10
-236.636
 20
-166.065
 30
0.0
 11
-236.779
 21
-166.494
 31
0.0
  0
LINE
  8
3
 62
3
 10
-236.779
 20
-166.494
 30
0.0
 11
-236.779
 21
-166.78
 31
0.0
  0
LINE
  8
3
 62
3
 10
-236.779
 20
-166.78
 30
0.0
 11
-236.636
 21
-167.208
 31
0.0
  0
LINE
  8
3
 62
3
 10
-236.636
 20
-167.208
 30
0.0
 11
-236.351
 21
-167.494
 31
0.0
  0
LINE
  8
3
 62
3
 10
-236.351
 20
-167.494
 30
0.0
 11
-236.065
 21
-167.637
 31
0.0
  0
LINE
  8
3
 62
3
 10
-236.065
 20
-167.637
 30
0.0
 11
-235.636
 21
-167.637
 31
0.0
  0
LINE
  8
3
 62
3
 10
-235.636
 20
-167.637
 30
0.0
 11
-235.351
 21
-167.494
 31
0.0
  0
LINE
  8
3
 62
3
 10
-235.351
 20
-167.494
 30
0.0
 11
-235.065
 21
-167.208
 31
0.0
  0
LINE
  8
3
 62
3
 10
-238.922
 20
-172.637
 30
0.0
 11
-238.922
 21
-175.065
 31
0.0
  0
LINE
  8
3
 62
3
 10
-238.922
 20
-175.065
 30
0.0
 11
-237.494
 21
-173.637
 31
0.0
  0
LINE
  8
3
 62
3
 10
-238.922
 20
-175.065
 30
0.0
 11
-238.922
 21
-175.637
 31
0.0
  0
LINE
  8
3
 62
3
 10
-239.779
 20
-175.208
 30
0.0
 11
-240.065
 21
-175.494
 31
0.0
  0
LINE
  8
3
 62
3
 10
-240.065
 20
-175.494
 30
0.0
 11
-240.351
 21
-175.637
 31
0.0
  0
LINE
  8
3
 62
3
 10
-240.351
 20
-175.637
 30
0.0
 11
-240.779
 21
-175.637
 31
0.0
  0
LINE
  8
3
 62
3
 10
-240.779
 20
-175.637
 30
0.0
 11
-241.065
 21
-175.494
 31
0.0
  0
LINE
  8
3
 62
3
 10
-241.065
 20
-175.494
 30
0.0
 11
-241.351
 21
-175.208
 31
0.0
  0
LINE
  8
3
 62
3
 10
-241.351
 20
-175.208
 30
0.0
 11
-241.494
 21
-174.78
 31
0.0
  0
LINE
  8
3
 62
3
 10
-241.494
 20
-174.78
 30
0.0
 11
-241.494
 21
-174.494
 31
0.0
  0
LINE
  8
3
 62
3
 10
-241.494
 20
-174.494
 30
0.0
 11
-241.351
 21
-174.065
 31
0.0
  0
LINE
  8
3
 62
3
 10
-241.351
 20
-174.065
 30
0.0
 11
-241.065
 21
-173.78
 31
0.0
  0
LINE
  8
3
 62
3
 10
-241.065
 20
-173.78
 30
0.0
 11
-240.779
 21
-173.637
 31
0.0
  0
LINE
  8
3
 62
3
 10
-240.779
 20
-173.637
 30
0.0
 11
-240.351
 21
-173.637
 31
0.0
  0
LINE
  8
3
 62
3
 10
-240.351
 20
-173.637
 30
0.0
 11
-240.065
 21
-173.78
 31
0.0
  0
LINE
  8
3
 62
3
 10
-240.065
 20
-173.78
 30
0.0
 11
-239.779
 21
-174.065
 31
0.0
  0
LINE
  8
3
 62
3
 10
-242.494
 20
-174.065
 30
0.0
 11
-242.494
 21
-175.208
 31
0.0
  0
LINE
  8
3
 62
3
 10
-242.494
 20
-175.637
 30
0.0
 11
-242.494
 21
-175.208
 31
0.0
  0
LINE
  8
3
 62
3
 10
-242.494
 20
-175.208
 30
0.0
 11
-242.779
 21
-175.494
 31
0.0
  0
LINE
  8
3
 62
3
 10
-242.779
 20
-175.494
 30
0.0
 11
-243.065
 21
-175.637
 31
0.0
  0
LINE
  8
3
 62
3
 10
-243.065
 20
-175.637
 30
0.0
 11
-243.494
 21
-175.637
 31
0.0
  0
LINE
  8
3
 62
3
 10
-243.494
 20
-175.637
 30
0.0
 11
-243.779
 21
-175.494
 31
0.0
  0
LINE
  8
3
 62
3
 10
-243.779
 20
-175.494
 30
0.0
 11
-244.065
 21
-175.208
 31
0.0
  0
LINE
  8
3
 62
3
 10
-244.065
 20
-175.208
 30
0.0
 11
-244.208
 21
-174.78
 31
0.0
  0
LINE
  8
3
 62
3
 10
-244.208
 20
-174.78
 30
0.0
 11
-244.208
 21
-174.494
 31
0.0
  0
LINE
  8
3
 62
3
 10
-244.208
 20
-174.494
 30
0.0
 11
-244.065
 21
-174.065
 31
0.0
  0
LINE
  8
3
 62
3
 10
-244.065
 20
-174.065
 30
0.0
 11
-243.779
 21
-173.78
 31
0.0
  0
LINE
  8
3
 62
3
 10
-243.779
 20
-173.78
 30
0.0
 11
-243.494
 21
-173.637
 31
0.0
  0
LINE
  8
3
 62
3
 10
-243.494
 20
-173.637
 30
0.0
 11
-243.065
 21
-173.637
 31
0.0
  0
LINE
  8
3
 62
3
 10
-243.065
 20
-173.637
 30
0.0
 11
-242.779
 21
-173.78
 31
0.0
  0
LINE
  8
3
 62
3
 10
-242.779
 20
-173.78
 30
0.0
 11
-242.494
 21
-174.065
 31
0.0
  0
LINE
  8
3
 62
3
 10
-242.494
 20
-174.065
 30
0.0
 11
-242.494
 21
-173.637
 31
0.0
  0
LINE
  8
3
 62
3
 10
-245.351
 20
-172.637
 30
0.0
 11
-245.351
 21
-175.637
 31
0.0
  0
LINE
  8
3
 62
3
 10
-248.065
 20
-175.637
 30
0.0
 11
-248.065
 21
-175.208
 31
0.0
  0
LINE
  8
3
 62
3
 10
-248.065
 20
-175.208
 30
0.0
 11
-247.779
 21
-175.494
 31
0.0
  0
LINE
  8
3
 62
3
 10
-247.779
 20
-175.494
 30
0.0
 11
-247.494
 21
-175.637
 31
0.0
  0
LINE
  8
3
 62
3
 10
-247.494
 20
-175.637
 30
0.0
 11
-247.065
 21
-175.637
 31
0.0
  0
LINE
  8
3
 62
3
 10
-247.065
 20
-175.637
 30
0.0
 11
-246.779
 21
-175.494
 31
0.0
  0
LINE
  8
3
 62
3
 10
-246.779
 20
-175.494
 30
0.0
 11
-246.494
 21
-175.208
 31
0.0
  0
LINE
  8
3
 62
3
 10
-246.494
 20
-175.208
 30
0.0
 11
-246.351
 21
-174.78
 31
0.0
  0
LINE
  8
3
 62
3
 10
-246.351
 20
-174.78
 30
0.0
 11
-246.351
 21
-174.494
 31
0.0
  0
LINE
  8
3
 62
3
 10
-246.351
 20
-174.494
 30
0.0
 11
-246.494
 21
-174.065
 31
0.0
  0
LINE
  8
3
 62
3
 10
-246.494
 20
-174.065
 30
0.0
 11
-246.779
 21
-173.78
 31
0.0
  0
LINE
  8
3
 62
3
 10
-246.779
 20
-173.78
 30
0.0
 11
-247.065
 21
-173.637
 31
0.0
  0
LINE
  8
3
 62
3
 10
-247.065
 20
-173.637
 30
0.0
 11
-247.494
 21
-173.637
 31
0.0
  0
LINE
  8
3
 62
3
 10
-247.494
 20
-173.637
 30
0.0
 11
-247.779
 21
-173.78
 31
0.0
  0
LINE
  8
3
 62
3
 10
-247.779
 20
-173.78
 30
0.0
 11
-248.065
 21
-174.065
 31
0.0
  0
LINE
  8
3
 62
3
 10
-248.065
 20
-174.065
 30
0.0
 11
-248.065
 21
-172.637
 31
0.0
  0
LINE
  8
3
 62
3
 10
-248.065
 20
-174.065
 30
0.0
 11
-248.065
 21
-175.208
 31
0.0
  0
LINE
  8
3
 62
3
 10
-246.922
 20
-177.637
 30
0.0
 11
-247.351
 21
-177.637
 31
0.0
  0
LINE
  8
3
 62
3
 10
-247.351
 20
-177.637
 30
0.0
 11
-247.636
 21
-177.78
 31
0.0
  0
LINE
  8
3
 62
3
 10
-247.636
 20
-177.78
 30
0.0
 11
-247.922
 21
-178.065
 31
0.0
  0
LINE
  8
3
 62
3
 10
-247.922
 20
-178.065
 30
0.0
 11
-248.065
 21
-178.494
 31
0.0
  0
LINE
  8
3
 62
3
 10
-248.065
 20
-178.494
 30
0.0
 11
-248.065
 21
-177.637
 31
0.0
  0
LINE
  8
3
 62
3
 10
-248.065
 20
-178.494
 30
0.0
 11
-248.065
 21
-179.637
 31
0.0
  0
LINE
  8
3
 62
3
 10
-246.351
 20
-181.637
 30
0.0
 11
-246.351
 21
-183.922
 31
0.0
  0
LINE
  8
3
 62
3
 10
-246.351
 20
-183.922
 30
0.0
 11
-246.494
 21
-184.351
 31
0.0
  0
LINE
  8
3
 62
3
 10
-246.494
 20
-184.351
 30
0.0
 11
-246.636
 21
-184.494
 31
0.0
  0
LINE
  8
3
 62
3
 10
-246.636
 20
-184.494
 30
0.0
 11
-246.922
 21
-184.637
 31
0.0
  0
LINE
  8
3
 62
3
 10
-246.922
 20
-184.637
 30
0.0
 11
-247.351
 21
-184.637
 31
0.0
  0
LINE
  8
3
 62
3
 10
-247.351
 20
-184.637
 30
0.0
 11
-247.636
 21
-184.494
 31
0.0
  0
LINE
  8
3
 62
3
 10
-246.351
 20
-183.208
 30
0.0
 11
-246.636
 21
-183.494
 31
0.0
  0
LINE
  8
3
 62
3
 10
-246.636
 20
-183.494
 30
0.0
 11
-246.922
 21
-183.637
 31
0.0
  0
LINE
  8
3
 62
3
 10
-246.922
 20
-183.637
 30
0.0
 11
-247.351
 21
-183.637
 31
0.0
  0
LINE
  8
3
 62
3
 10
-247.351
 20
-183.637
 30
0.0
 11
-247.636
 21
-183.494
 31
0.0
  0
LINE
  8
3
 62
3
 10
-247.636
 20
-183.494
 30
0.0
 11
-247.922
 21
-183.208
 31
0.0
  0
LINE
  8
3
 62
3
 10
-247.922
 20
-183.208
 30
0.0
 11
-248.065
 21
-182.78
 31
0.0
  0
LINE
  8
3
 62
3
 10
-248.065
 20
-182.78
 30
0.0
 11
-248.065
 21
-182.494
 31
0.0
  0
LINE
  8
3
 62
3
 10
-248.065
 20
-182.494
 30
0.0
 11
-247.922
 21
-182.065
 31
0.0
  0
LINE
  8
3
 62
3
 10
-247.922
 20
-182.065
 30
0.0
 11
-247.636
 21
-181.78
 31
0.0
  0
LINE
  8
3
 62
3
 10
-247.636
 20
-181.78
 30
0.0
 11
-247.351
 21
-181.637
 31
0.0
  0
LINE
  8
3
 62
3
 10
-247.351
 20
-181.637
 30
0.0
 11
-246.922
 21
-181.637
 31
0.0
  0
LINE
  8
3
 62
3
 10
-246.922
 20
-181.637
 30
0.0
 11
-246.636
 21
-181.78
 31
0.0
  0
LINE
  8
3
 62
3
 10
-246.636
 20
-181.78
 30
0.0
 11
-246.351
 21
-182.065
 31
0.0
  0
LINE
  8
3
 62
3
 10
-246.208
 20
-178.494
 30
0.0
 11
-244.494
 21
-178.494
 31
0.0
  0
LINE
  8
3
 62
3
 10
-244.494
 20
-178.494
 30
0.0
 11
-244.494
 21
-178.208
 31
0.0
  0
LINE
  8
3
 62
3
 10
-244.494
 20
-178.208
 30
0.0
 11
-244.636
 21
-177.922
 31
0.0
  0
LINE
  8
3
 62
3
 10
-244.636
 20
-177.922
 30
0.0
 11
-244.779
 21
-177.78
 31
0.0
  0
LINE
  8
3
 62
3
 10
-244.779
 20
-177.78
 30
0.0
 11
-245.065
 21
-177.637
 31
0.0
  0
LINE
  8
3
 62
3
 10
-245.065
 20
-177.637
 30
0.0
 11
-245.494
 21
-177.637
 31
0.0
  0
LINE
  8
3
 62
3
 10
-245.494
 20
-177.637
 30
0.0
 11
-245.779
 21
-177.78
 31
0.0
  0
LINE
  8
3
 62
3
 10
-245.779
 20
-177.78
 30
0.0
 11
-246.065
 21
-178.065
 31
0.0
  0
LINE
  8
3
 62
3
 10
-246.065
 20
-178.065
 30
0.0
 11
-246.208
 21
-178.494
 31
0.0
  0
LINE
  8
3
 62
3
 10
-246.208
 20
-178.494
 30
0.0
 11
-246.208
 21
-178.78
 31
0.0
  0
LINE
  8
3
 62
3
 10
-246.208
 20
-178.78
 30
0.0
 11
-246.065
 21
-179.208
 31
0.0
  0
LINE
  8
3
 62
3
 10
-246.065
 20
-179.208
 30
0.0
 11
-245.779
 21
-179.494
 31
0.0
  0
LINE
  8
3
 62
3
 10
-245.779
 20
-179.494
 30
0.0
 11
-245.494
 21
-179.637
 31
0.0
  0
LINE
  8
3
 62
3
 10
-245.494
 20
-179.637
 30
0.0
 11
-245.065
 21
-179.637
 31
0.0
  0
LINE
  8
3
 62
3
 10
-245.065
 20
-179.637
 30
0.0
 11
-244.779
 21
-179.494
 31
0.0
  0
LINE
  8
3
 62
3
 10
-244.779
 20
-179.494
 30
0.0
 11
-244.494
 21
-179.208
 31
0.0
  0
LINE
  8
3
 62
3
 10
-244.208
 20
-181.637
 30
0.0
 11
-244.636
 21
-181.637
 31
0.0
  0
LINE
  8
3
 62
3
 10
-244.636
 20
-181.637
 30
0.0
 11
-244.922
 21
-181.78
 31
0.0
  0
LINE
  8
3
 62
3
 10
-244.922
 20
-181.78
 30
0.0
 11
-245.208
 21
-182.065
 31
0.0
  0
LINE
  8
3
 62
3
 10
-245.208
 20
-182.065
 30
0.0
 11
-245.351
 21
-182.494
 31
0.0
  0
LINE
  8
3
 62
3
 10
-245.351
 20
-182.494
 30
0.0
 11
-245.351
 21
-181.637
 31
0.0
  0
LINE
  8
3
 62
3
 10
-245.351
 20
-182.494
 30
0.0
 11
-245.351
 21
-183.637
 31
0.0
  0
LINE
  8
3
 62
3
 10
-243.494
 20
-182.494
 30
0.0
 11
-241.779
 21
-182.494
 31
0.0
  0
LINE
  8
3
 62
3
 10
-241.779
 20
-182.494
 30
0.0
 11
-241.779
 21
-182.208
 31
0.0
  0
LINE
  8
3
 62
3
 10
-241.779
 20
-182.208
 30
0.0
 11
-241.922
 21
-181.922
 31
0.0
  0
LINE
  8
3
 62
3
 10
-241.922
 20
-181.922
 30
0.0
 11
-242.065
 21
-181.78
 31
0.0
  0
LINE
  8
3
 62
3
 10
-242.065
 20
-181.78
 30
0.0
 11
-242.351
 21
-181.637
 31
0.0
  0
LINE
  8
3
 62
3
 10
-242.351
 20
-181.637
 30
0.0
 11
-242.779
 21
-181.637
 31
0.0
  0
LINE
  8
3
 62
3
 10
-242.779
 20
-181.637
 30
0.0
 11
-243.065
 21
-181.78
 31
0.0
  0
LINE
  8
3
 62
3
 10
-243.065
 20
-181.78
 30
0.0
 11
-243.351
 21
-182.065
 31
0.0
  0
LINE
  8
3
 62
3
 10
-243.351
 20
-182.065
 30
0.0
 11
-243.494
 21
-182.494
 31
0.0
  0
LINE
  8
3
 62
3
 10
-243.494
 20
-182.494
 30
0.0
 11
-243.494
 21
-182.78
 31
0.0
  0
LINE
  8
3
 62
3
 10
-243.494
 20
-182.78
 30
0.0
 11
-243.351
 21
-183.208
 31
0.0
  0
LINE
  8
3
 62
3
 10
-243.351
 20
-183.208
 30
0.0
 11
-243.065
 21
-183.494
 31
0.0
  0
LINE
  8
3
 62
3
 10
-243.065
 20
-183.494
 30
0.0
 11
-242.779
 21
-183.637
 31
0.0
  0
LINE
  8
3
 62
3
 10
-242.779
 20
-183.637
 30
0.0
 11
-242.351
 21
-183.637
 31
0.0
  0
LINE
  8
3
 62
3
 10
-242.351
 20
-183.637
 30
0.0
 11
-242.065
 21
-183.494
 31
0.0
  0
LINE
  8
3
 62
3
 10
-242.065
 20
-183.494
 30
0.0
 11
-241.779
 21
-183.208
 31
0.0
  0
LINE
  8
3
 62
3
 10
-240.922
 20
-182.494
 30
0.0
 11
-239.208
 21
-182.494
 31
0.0
  0
LINE
  8
3
 62
3
 10
-239.208
 20
-182.494
 30
0.0
 11
-239.208
 21
-182.208
 31
0.0
  0
LINE
  8
3
 62
3
 10
-239.208
 20
-182.208
 30
0.0
 11
-239.351
 21
-181.922
 31
0.0
  0
LINE
  8
3
 62
3
 10
-239.351
 20
-181.922
 30
0.0
 11
-239.494
 21
-181.78
 31
0.0
  0
LINE
  8
3
 62
3
 10
-239.494
 20
-181.78
 30
0.0
 11
-239.779
 21
-181.637
 31
0.0
  0
LINE
  8
3
 62
3
 10
-239.779
 20
-181.637
 30
0.0
 11
-240.208
 21
-181.637
 31
0.0
  0
LINE
  8
3
 62
3
 10
-240.208
 20
-181.637
 30
0.0
 11
-240.494
 21
-181.78
 31
0.0
  0
LINE
  8
3
 62
3
 10
-240.494
 20
-181.78
 30
0.0
 11
-240.779
 21
-182.065
 31
0.0
  0
LINE
  8
3
 62
3
 10
-240.779
 20
-182.065
 30
0.0
 11
-240.922
 21
-182.494
 31
0.0
  0
LINE
  8
3
 62
3
 10
-240.922
 20
-182.494
 30
0.0
 11
-240.922
 21
-182.78
 31
0.0
  0
LINE
  8
3
 62
3
 10
-240.922
 20
-182.78
 30
0.0
 11
-240.779
 21
-183.208
 31
0.0
  0
LINE
  8
3
 62
3
 10
-240.779
 20
-183.208
 30
0.0
 11
-240.494
 21
-183.494
 31
0.0
  0
LINE
  8
3
 62
3
 10
-240.494
 20
-183.494
 30
0.0
 11
-240.208
 21
-183.637
 31
0.0
  0
LINE
  8
3
 62
3
 10
-240.208
 20
-183.637
 30
0.0
 11
-239.779
 21
-183.637
 31
0.0
  0
LINE
  8
3
 62
3
 10
-239.779
 20
-183.637
 30
0.0
 11
-239.494
 21
-183.494
 31
0.0
  0
LINE
  8
3
 62
3
 10
-239.494
 20
-183.494
 30
0.0
 11
-239.208
 21
-183.208
 31
0.0
  0
LINE
  8
3
 62
3
 10
-238.351
 20
-183.637
 30
0.0
 11
-238.351
 21
-182.208
 31
0.0
  0
LINE
  8
3
 62
3
 10
-236.779
 20
-183.637
 30
0.0
 11
-236.779
 21
-182.208
 31
0.0
  0
LINE
  8
3
 62
3
 10
-236.779
 20
-182.208
 30
0.0
 11
-236.922
 21
-181.78
 31
0.0
  0
LINE
  8
3
 62
3
 10
-236.922
 20
-181.78
 30
0.0
 11
-237.208
 21
-181.637
 31
0.0
  0
LINE
  8
3
 62
3
 10
-237.208
 20
-181.637
 30
0.0
 11
-237.636
 21
-181.637
 31
0.0
  0
LINE
  8
3
 62
3
 10
-237.636
 20
-181.637
 30
0.0
 11
-237.922
 21
-181.78
 31
0.0
  0
LINE
  8
3
 62
3
 10
-237.922
 20
-181.78
 30
0.0
 11
-238.351
 21
-182.208
 31
0.0
  0
LINE
  8
3
 62
3
 10
-238.351
 20
-182.208
 30
0.0
 11
-238.351
 21
-181.637
 31
0.0
  0
LINE
  8
3
 62
3
 10
-241.922
 20
-179.637
 30
0.0
 11
-241.922
 21
-179.208
 31
0.0
  0
LINE
  8
3
 62
3
 10
-241.922
 20
-179.208
 30
0.0
 11
-242.208
 21
-179.494
 31
0.0
  0
LINE
  8
3
 62
3
 10
-242.208
 20
-179.494
 30
0.0
 11
-242.494
 21
-179.637
 31
0.0
  0
LINE
  8
3
 62
3
 10
-242.494
 20
-179.637
 30
0.0
 11
-242.922
 21
-179.637
 31
0.0
  0
LINE
  8
3
 62
3
 10
-242.922
 20
-179.637
 30
0.0
 11
-243.208
 21
-179.494
 31
0.0
  0
LINE
  8
3
 62
3
 10
-243.208
 20
-179.494
 30
0.0
 11
-243.494
 21
-179.208
 31
0.0
  0
LINE
  8
3
 62
3
 10
-243.494
 20
-179.208
 30
0.0
 11
-243.636
 21
-178.78
 31
0.0
  0
LINE
  8
3
 62
3
 10
-243.636
 20
-178.78
 30
0.0
 11
-243.636
 21
-178.494
 31
0.0
  0
LINE
  8
3
 62
3
 10
-243.636
 20
-178.494
 30
0.0
 11
-243.494
 21
-178.065
 31
0.0
  0
LINE
  8
3
 62
3
 10
-243.494
 20
-178.065
 30
0.0
 11
-243.208
 21
-177.78
 31
0.0
  0
LINE
  8
3
 62
3
 10
-243.208
 20
-177.78
 30
0.0
 11
-242.922
 21
-177.637
 31
0.0
  0
LINE
  8
3
 62
3
 10
-242.922
 20
-177.637
 30
0.0
 11
-242.494
 21
-177.637
 31
0.0
  0
LINE
  8
3
 62
3
 10
-242.494
 20
-177.637
 30
0.0
 11
-242.208
 21
-177.78
 31
0.0
  0
LINE
  8
3
 62
3
 10
-242.208
 20
-177.78
 30
0.0
 11
-241.922
 21
-178.065
 31
0.0
  0
LINE
  8
3
 62
3
 10
-241.922
 20
-178.065
 30
0.0
 11
-241.922
 21
-176.637
 31
0.0
  0
LINE
  8
3
 62
3
 10
-241.922
 20
-178.065
 30
0.0
 11
-241.922
 21
-179.208
 31
0.0
  0
LINE
  8
3
 62
3
 10
-238.351
 20
-174.494
 30
0.0
 11
-237.351
 21
-175.637
 31
0.0
  0
LINE
  8
3
 62
3
 10
-225.636
 20
-174.351
 30
0.0
 11
-223.065
 21
-174.351
 31
0.0
  0
LINE
  8
3
 62
3
 10
-222.065
 20
-178.351
 30
0.0
 11
-224.636
 21
-178.351
 31
0.0
  0
LINE
  8
3
 62
3
 10
-222.208
 20
-182.351
 30
0.0
 11
-224.779
 21
-182.351
 31
0.0
  0
LINE
  8
3
 62
3
 10
-237.779
 20
-190.065
 30
0.0
 11
-237.922
 21
-189.78
 31
0.0
  0
LINE
  8
3
 62
3
 10
-237.922
 20
-189.78
 30
0.0
 11
-238.351
 21
-189.637
 31
0.0
  0
LINE
  8
3
 62
3
 10
-238.351
 20
-189.637
 30
0.0
 11
-238.779
 21
-189.637
 31
0.0
  0
LINE
  8
3
 62
3
 10
-238.779
 20
-189.637
 30
0.0
 11
-239.208
 21
-189.78
 31
0.0
  0
LINE
  8
3
 62
3
 10
-239.208
 20
-189.78
 30
0.0
 11
-239.351
 21
-190.065
 31
0.0
  0
LINE
  8
3
 62
3
 10
-239.351
 20
-190.065
 30
0.0
 11
-239.208
 21
-190.351
 31
0.0
  0
LINE
  8
3
 62
3
 10
-239.208
 20
-190.351
 30
0.0
 11
-238.922
 21
-190.494
 31
0.0
  0
LINE
  8
3
 62
3
 10
-238.922
 20
-190.494
 30
0.0
 11
-238.208
 21
-190.637
 31
0.0
  0
LINE
  8
3
 62
3
 10
-238.208
 20
-190.637
 30
0.0
 11
-237.922
 21
-190.78
 31
0.0
  0
LINE
  8
3
 62
3
 10
-237.922
 20
-190.78
 30
0.0
 11
-237.779
 21
-191.065
 31
0.0
  0
LINE
  8
3
 62
3
 10
-237.779
 20
-191.065
 30
0.0
 11
-237.779
 21
-191.208
 31
0.0
  0
LINE
  8
3
 62
3
 10
-237.779
 20
-191.208
 30
0.0
 11
-237.922
 21
-191.494
 31
0.0
  0
LINE
  8
3
 62
3
 10
-237.922
 20
-191.494
 30
0.0
 11
-238.351
 21
-191.637
 31
0.0
  0
LINE
  8
3
 62
3
 10
-238.351
 20
-191.637
 30
0.0
 11
-238.779
 21
-191.637
 31
0.0
  0
LINE
  8
3
 62
3
 10
-238.779
 20
-191.637
 30
0.0
 11
-239.208
 21
-191.494
 31
0.0
  0
LINE
  8
3
 62
3
 10
-239.208
 20
-191.494
 30
0.0
 11
-239.351
 21
-191.208
 31
0.0
  0
LINE
  8
3
 62
3
 10
-240.351
 20
-191.208
 30
0.0
 11
-240.351
 21
-190.065
 31
0.0
  0
LINE
  8
3
 62
3
 10
-240.351
 20
-189.637
 30
0.0
 11
-240.351
 21
-190.065
 31
0.0
  0
LINE
  8
3
 62
3
 10
-240.351
 20
-190.065
 30
0.0
 11
-240.636
 21
-189.78
 31
0.0
  0
LINE
  8
3
 62
3
 10
-240.636
 20
-189.78
 30
0.0
 11
-240.922
 21
-189.637
 31
0.0
  0
LINE
  8
3
 62
3
 10
-240.922
 20
-189.637
 30
0.0
 11
-241.351
 21
-189.637
 31
0.0
  0
LINE
  8
3
 62
3
 10
-241.351
 20
-189.637
 30
0.0
 11
-241.636
 21
-189.78
 31
0.0
  0
LINE
  8
3
 62
3
 10
-241.636
 20
-189.78
 30
0.0
 11
-241.922
 21
-190.065
 31
0.0
  0
LINE
  8
3
 62
3
 10
-241.922
 20
-190.065
 30
0.0
 11
-242.065
 21
-190.494
 31
0.0
  0
LINE
  8
3
 62
3
 10
-242.065
 20
-190.494
 30
0.0
 11
-242.065
 21
-190.78
 31
0.0
  0
LINE
  8
3
 62
3
 10
-242.065
 20
-190.78
 30
0.0
 11
-241.922
 21
-191.208
 31
0.0
  0
LINE
  8
3
 62
3
 10
-241.922
 20
-191.208
 30
0.0
 11
-241.636
 21
-191.494
 31
0.0
  0
LINE
  8
3
 62
3
 10
-241.636
 20
-191.494
 30
0.0
 11
-241.351
 21
-191.637
 31
0.0
  0
LINE
  8
3
 62
3
 10
-241.351
 20
-191.637
 30
0.0
 11
-240.922
 21
-191.637
 31
0.0
  0
LINE
  8
3
 62
3
 10
-240.922
 20
-191.637
 30
0.0
 11
-240.636
 21
-191.494
 31
0.0
  0
LINE
  8
3
 62
3
 10
-240.636
 20
-191.494
 30
0.0
 11
-240.351
 21
-191.208
 31
0.0
  0
LINE
  8
3
 62
3
 10
-240.351
 20
-191.208
 30
0.0
 11
-240.351
 21
-191.637
 31
0.0
  0
LINE
  8
3
 62
3
 10
-242.922
 20
-191.208
 30
0.0
 11
-243.208
 21
-191.494
 31
0.0
  0
LINE
  8
3
 62
3
 10
-243.208
 20
-191.494
 30
0.0
 11
-243.494
 21
-191.637
 31
0.0
  0
LINE
  8
3
 62
3
 10
-243.494
 20
-191.637
 30
0.0
 11
-243.922
 21
-191.637
 31
0.0
  0
LINE
  8
3
 62
3
 10
-243.922
 20
-191.637
 30
0.0
 11
-244.208
 21
-191.494
 31
0.0
  0
LINE
  8
3
 62
3
 10
-244.208
 20
-191.494
 30
0.0
 11
-244.494
 21
-191.208
 31
0.0
  0
LINE
  8
3
 62
3
 10
-244.494
 20
-191.208
 30
0.0
 11
-244.636
 21
-190.78
 31
0.0
  0
LINE
  8
3
 62
3
 10
-244.636
 20
-190.78
 30
0.0
 11
-244.636
 21
-190.494
 31
0.0
  0
LINE
  8
3
 62
3
 10
-244.636
 20
-190.494
 30
0.0
 11
-244.494
 21
-190.065
 31
0.0
  0
LINE
  8
3
 62
3
 10
-244.494
 20
-190.065
 30
0.0
 11
-244.208
 21
-189.78
 31
0.0
  0
LINE
  8
3
 62
3
 10
-244.208
 20
-189.78
 30
0.0
 11
-243.922
 21
-189.637
 31
0.0
  0
LINE
  8
3
 62
3
 10
-243.922
 20
-189.637
 30
0.0
 11
-243.494
 21
-189.637
 31
0.0
  0
LINE
  8
3
 62
3
 10
-243.494
 20
-189.637
 30
0.0
 11
-243.208
 21
-189.78
 31
0.0
  0
LINE
  8
3
 62
3
 10
-243.208
 20
-189.78
 30
0.0
 11
-243.065
 21
-189.922
 31
0.0
  0
LINE
  8
3
 62
3
 10
-243.065
 20
-189.922
 30
0.0
 11
-242.922
 21
-190.208
 31
0.0
  0
LINE
  8
3
 62
3
 10
-242.922
 20
-190.208
 30
0.0
 11
-242.922
 21
-190.494
 31
0.0
  0
LINE
  8
3
 62
3
 10
-242.922
 20
-190.494
 30
0.0
 11
-244.636
 21
-190.494
 31
0.0
  0
LINE
  8
3
 62
3
 10
-245.779
 20
-191.637
 30
0.0
 11
-245.779
 21
-188.637
 31
0.0
  0
LINE
  8
3
 62
3
 10
-245.779
 20
-188.637
 30
0.0
 11
-246.922
 21
-191.637
 31
0.0
  0
LINE
  8
3
 62
3
 10
-246.922
 20
-191.637
 30
0.0
 11
-248.065
 21
-188.637
 31
0.0
  0
LINE
  8
3
 62
3
 10
-248.065
 20
-188.637
 30
0.0
 11
-248.065
 21
-191.637
 31
0.0
  0
LINE
  8
3
 62
3
 10
-247.065
 20
-168.637
 30
0.0
 11
-247.351
 21
-168.351
 31
0.0
  0
LINE
  8
3
 62
3
 10
-247.351
 20
-168.351
 30
0.0
 11
-247.636
 21
-167.922
 31
0.0
  0
LINE
  8
3
 62
3
 10
-247.636
 20
-167.922
 30
0.0
 11
-247.922
 21
-167.351
 31
0.0
  0
LINE
  8
3
 62
3
 10
-247.922
 20
-167.351
 30
0.0
 11
-248.065
 21
-166.637
 31
0.0
  0
LINE
  8
3
 62
3
 10
-248.065
 20
-166.637
 30
0.0
 11
-248.065
 21
-166.065
 31
0.0
  0
LINE
  8
3
 62
3
 10
-248.065
 20
-166.065
 30
0.0
 11
-247.922
 21
-165.351
 31
0.0
  0
LINE
  8
3
 62
3
 10
-247.922
 20
-165.351
 30
0.0
 11
-247.636
 21
-164.78
 31
0.0
  0
LINE
  8
3
 62
3
 10
-247.636
 20
-164.78
 30
0.0
 11
-247.351
 21
-164.351
 31
0.0
  0
LINE
  8
3
 62
3
 10
-247.351
 20
-164.351
 30
0.0
 11
-247.636
 21
-163.922
 31
0.0
  0
LINE
  8
3
 62
3
 10
-247.636
 20
-163.922
 30
0.0
 11
-247.922
 21
-163.351
 31
0.0
  0
LINE
  8
3
 62
3
 10
-247.922
 20
-163.351
 30
0.0
 11
-248.065
 21
-162.637
 31
0.0
  0
LINE
  8
3
 62
3
 10
-248.065
 20
-162.637
 30
0.0
 11
-248.065
 21
-162.065
 31
0.0
  0
LINE
  8
3
 62
3
 10
-248.065
 20
-162.065
 30
0.0
 11
-247.922
 21
-161.351
 31
0.0
  0
LINE
  8
3
 62
3
 10
-247.922
 20
-161.351
 30
0.0
 11
-247.636
 21
-160.78
 31
0.0
  0
LINE
  8
3
 62
3
 10
-247.636
 20
-160.78
 30
0.0
 11
-247.351
 21
-160.351
 31
0.0
  0
LINE
  8
3
 62
3
 10
-247.351
 20
-160.351
 30
0.0
 11
-247.065
 21
-160.065
 31
0.0
  0
LINE
  8
3
 62
3
 10
-247.065
 20
-164.065
 30
0.0
 11
-247.351
 21
-164.351
 31
0.0
  0
LINE
  8
3
 62
3
 10
-247.351
 20
-164.351
 30
0.0
 11
-247.065
 21
-164.637
 31
0.0
  0
LINE
  8
3
 62
3
 10
-246.065
 20
-167.637
 30
0.0
 11
-246.065
 21
-164.637
 31
0.0
  0
LINE
  8
3
 62
3
 10
-246.065
 20
-164.637
 30
0.0
 11
-244.922
 21
-167.637
 31
0.0
  0
LINE
  8
3
 62
3
 10
-244.922
 20
-167.637
 30
0.0
 11
-243.779
 21
-164.637
 31
0.0
  0
LINE
  8
3
 62
3
 10
-243.779
 20
-164.637
 30
0.0
 11
-243.779
 21
-167.637
 31
0.0
  0
LINE
  8
3
 62
3
 10
-243.922
 20
-162.922
 30
0.0
 11
-244.065
 21
-163.208
 31
0.0
  0
LINE
  8
3
 62
3
 10
-244.065
 20
-163.208
 30
0.0
 11
-244.351
 21
-163.494
 31
0.0
  0
LINE
  8
3
 62
3
 10
-244.351
 20
-163.494
 30
0.0
 11
-244.636
 21
-163.637
 31
0.0
  0
LINE
  8
3
 62
3
 10
-244.636
 20
-163.637
 30
0.0
 11
-245.208
 21
-163.637
 31
0.0
  0
LINE
  8
3
 62
3
 10
-245.208
 20
-163.637
 30
0.0
 11
-245.494
 21
-163.494
 31
0.0
  0
LINE
  8
3
 62
3
 10
-245.494
 20
-163.494
 30
0.0
 11
-245.779
 21
-163.208
 31
0.0
  0
LINE
  8
3
 62
3
 10
-245.779
 20
-163.208
 30
0.0
 11
-245.922
 21
-162.922
 31
0.0
  0
LINE
  8
3
 62
3
 10
-245.922
 20
-162.922
 30
0.0
 11
-246.065
 21
-162.494
 31
0.0
  0
LINE
  8
3
 62
3
 10
-246.065
 20
-162.494
 30
0.0
 11
-246.065
 21
-161.78
 31
0.0
  0
LINE
  8
3
 62
3
 10
-246.065
 20
-161.78
 30
0.0
 11
-245.922
 21
-161.351
 31
0.0
  0
LINE
  8
3
 62
3
 10
-245.922
 20
-161.351
 30
0.0
 11
-245.779
 21
-161.065
 31
0.0
  0
LINE
  8
3
 62
3
 10
-245.779
 20
-161.065
 30
0.0
 11
-245.494
 21
-160.78
 31
0.0
  0
LINE
  8
3
 62
3
 10
-245.494
 20
-160.78
 30
0.0
 11
-245.208
 21
-160.637
 31
0.0
  0
LINE
  8
3
 62
3
 10
-245.208
 20
-160.637
 30
0.0
 11
-244.636
 21
-160.637
 31
0.0
  0
LINE
  8
3
 62
3
 10
-244.636
 20
-160.637
 30
0.0
 11
-244.351
 21
-160.78
 31
0.0
  0
LINE
  8
3
 62
3
 10
-244.351
 20
-160.78
 30
0.0
 11
-244.065
 21
-161.065
 31
0.0
  0
LINE
  8
3
 62
3
 10
-244.065
 20
-161.065
 30
0.0
 11
-243.922
 21
-161.351
 31
0.0
  0
LINE
  8
3
 62
3
 10
-243.065
 20
-160.065
 30
0.0
 11
-242.779
 21
-160.351
 31
0.0
  0
LINE
  8
3
 62
3
 10
-242.779
 20
-160.351
 30
0.0
 11
-242.494
 21
-160.78
 31
0.0
  0
LINE
  8
3
 62
3
 10
-242.494
 20
-160.78
 30
0.0
 11
-242.208
 21
-161.351
 31
0.0
  0
LINE
  8
3
 62
3
 10
-242.208
 20
-161.351
 30
0.0
 11
-242.065
 21
-162.065
 31
0.0
  0
LINE
  8
3
 62
3
 10
-242.065
 20
-162.065
 30
0.0
 11
-242.065
 21
-162.637
 31
0.0
  0
LINE
  8
3
 62
3
 10
-242.065
 20
-162.637
 30
0.0
 11
-242.208
 21
-163.351
 31
0.0
  0
LINE
  8
3
 62
3
 10
-242.208
 20
-163.351
 30
0.0
 11
-242.494
 21
-163.922
 31
0.0
  0
LINE
  8
3
 62
3
 10
-242.494
 20
-163.922
 30
0.0
 11
-242.779
 21
-164.351
 31
0.0
  0
LINE
  8
3
 62
3
 10
-242.779
 20
-164.351
 30
0.0
 11
-243.065
 21
-164.637
 31
0.0
  0
LINE
  8
3
 62
3
 10
-227.922
 20
-163.637
 30
0.0
 11
-227.922
 21
-160.637
 31
0.0
  0
LINE
  8
3
 62
3
 10
-226.636
 20
-160.637
 30
0.0
 11
-226.494
 21
-160.78
 31
0.0
  0
LINE
  8
3
 62
3
 10
-226.494
 20
-160.78
 30
0.0
 11
-226.636
 21
-160.922
 31
0.0
  0
LINE
  8
3
 62
3
 10
-226.636
 20
-160.922
 30
0.0
 11
-226.779
 21
-160.78
 31
0.0
  0
LINE
  8
3
 62
3
 10
-226.779
 20
-160.78
 30
0.0
 11
-226.636
 21
-160.637
 31
0.0
  0
LINE
  8
3
 62
3
 10
-225.636
 20
-160.637
 30
0.0
 11
-225.636
 21
-163.065
 31
0.0
  0
LINE
  8
3
 62
3
 10
-225.636
 20
-163.065
 30
0.0
 11
-224.208
 21
-161.637
 31
0.0
  0
LINE
  8
3
 62
3
 10
-225.636
 20
-163.065
 30
0.0
 11
-225.636
 21
-163.637
 31
0.0
  0
LINE
  8
3
 62
3
 10
-226.636
 20
-163.637
 30
0.0
 11
-226.636
 21
-161.637
 31
0.0
  0
LINE
  8
3
 62
3
 10
-225.065
 20
-162.494
 30
0.0
 11
-224.065
 21
-163.637
 31
0.0
  0
LINE
  8
3
 62
3
 10
-223.208
 20
-162.494
 30
0.0
 11
-221.494
 21
-162.494
 31
0.0
  0
LINE
  8
3
 62
3
 10
-221.494
 20
-162.494
 30
0.0
 11
-221.494
 21
-162.208
 31
0.0
  0
LINE
  8
3
 62
3
 10
-221.494
 20
-162.208
 30
0.0
 11
-221.636
 21
-161.922
 31
0.0
  0
LINE
  8
3
 62
3
 10
-221.636
 20
-161.922
 30
0.0
 11
-221.779
 21
-161.78
 31
0.0
  0
LINE
  8
3
 62
3
 10
-221.779
 20
-161.78
 30
0.0
 11
-222.065
 21
-161.637
 31
0.0
  0
LINE
  8
3
 62
3
 10
-222.065
 20
-161.637
 30
0.0
 11
-222.494
 21
-161.637
 31
0.0
  0
LINE
  8
3
 62
3
 10
-222.494
 20
-161.637
 30
0.0
 11
-222.779
 21
-161.78
 31
0.0
  0
LINE
  8
3
 62
3
 10
-222.779
 20
-161.78
 30
0.0
 11
-223.065
 21
-162.065
 31
0.0
  0
LINE
  8
3
 62
3
 10
-223.065
 20
-162.065
 30
0.0
 11
-223.208
 21
-162.494
 31
0.0
  0
LINE
  8
3
 62
3
 10
-223.208
 20
-162.494
 30
0.0
 11
-223.208
 21
-162.78
 31
0.0
  0
LINE
  8
3
 62
3
 10
-223.208
 20
-162.78
 30
0.0
 11
-223.065
 21
-163.208
 31
0.0
  0
LINE
  8
3
 62
3
 10
-223.065
 20
-163.208
 30
0.0
 11
-222.779
 21
-163.494
 31
0.0
  0
LINE
  8
3
 62
3
 10
-222.779
 20
-163.494
 30
0.0
 11
-222.494
 21
-163.637
 31
0.0
  0
LINE
  8
3
 62
3
 10
-222.494
 20
-163.637
 30
0.0
 11
-222.065
 21
-163.637
 31
0.0
  0
LINE
  8
3
 62
3
 10
-222.065
 20
-163.637
 30
0.0
 11
-221.779
 21
-163.494
 31
0.0
  0
LINE
  8
3
 62
3
 10
-221.779
 20
-163.494
 30
0.0
 11
-221.494
 21
-163.208
 31
0.0
  0
LINE
  8
3
 62
3
 10
-216.208
 20
-163.637
 30
0.0
 11
-216.208
 21
-163.208
 31
0.0
  0
LINE
  8
3
 62
3
 10
-216.208
 20
-163.208
 30
0.0
 11
-216.494
 21
-163.494
 31
0.0
  0
LINE
  8
3
 62
3
 10
-216.494
 20
-163.494
 30
0.0
 11
-216.779
 21
-163.637
 31
0.0
  0
LINE
  8
3
 62
3
 10
-216.779
 20
-163.637
 30
0.0
 11
-217.208
 21
-163.637
 31
0.0
  0
LINE
  8
3
 62
3
 10
-217.208
 20
-163.637
 30
0.0
 11
-217.494
 21
-163.494
 31
0.0
  0
LINE
  8
3
 62
3
 10
-217.494
 20
-163.494
 30
0.0
 11
-217.779
 21
-163.208
 31
0.0
  0
LINE
  8
3
 62
3
 10
-217.779
 20
-163.208
 30
0.0
 11
-217.922
 21
-162.78
 31
0.0
  0
LINE
  8
3
 62
3
 10
-217.922
 20
-162.78
 30
0.0
 11
-217.922
 21
-162.494
 31
0.0
  0
LINE
  8
3
 62
3
 10
-217.922
 20
-162.494
 30
0.0
 11
-217.779
 21
-162.065
 31
0.0
  0
LINE
  8
3
 62
3
 10
-217.779
 20
-162.065
 30
0.0
 11
-217.494
 21
-161.78
 31
0.0
  0
LINE
  8
3
 62
3
 10
-217.494
 20
-161.78
 30
0.0
 11
-217.208
 21
-161.637
 31
0.0
  0
LINE
  8
3
 62
3
 10
-217.208
 20
-161.637
 30
0.0
 11
-216.779
 21
-161.637
 31
0.0
  0
LINE
  8
3
 62
3
 10
-216.779
 20
-161.637
 30
0.0
 11
-216.494
 21
-161.78
 31
0.0
  0
LINE
  8
3
 62
3
 10
-216.494
 20
-161.78
 30
0.0
 11
-216.208
 21
-162.065
 31
0.0
  0
LINE
  8
3
 62
3
 10
-216.208
 20
-162.065
 30
0.0
 11
-216.208
 21
-161.637
 31
0.0
  0
LINE
  8
3
 62
3
 10
-216.208
 20
-162.065
 30
0.0
 11
-216.208
 21
-163.208
 31
0.0
  0
LINE
  8
3
 62
3
 10
28.559
 20
-146.78
 30
0.0
 11
28.798
 21
-147.018
 31
0.0
  0
LINE
  8
3
 62
3
 10
28.798
 20
-147.018
 30
0.0
 11
29.155
 21
-147.137
 31
0.0
  0
LINE
  8
3
 62
3
 10
29.155
 20
-147.137
 30
0.0
 11
29.631
 21
-147.137
 31
0.0
  0
LINE
  8
3
 62
3
 10
29.631
 20
-147.137
 30
0.0
 11
29.988
 21
-147.018
 31
0.0
  0
LINE
  8
3
 62
3
 10
29.988
 20
-147.018
 30
0.0
 11
30.226
 21
-146.78
 31
0.0
  0
LINE
  8
3
 62
3
 10
30.226
 20
-146.78
 30
0.0
 11
30.226
 21
-146.422
 31
0.0
  0
LINE
  8
3
 62
3
 10
30.226
 20
-146.422
 30
0.0
 11
30.107
 21
-146.184
 31
0.0
  0
LINE
  8
3
 62
3
 10
30.107
 20
-146.184
 30
0.0
 11
29.988
 21
-146.065
 31
0.0
  0
LINE
  8
3
 62
3
 10
29.988
 20
-146.065
 30
0.0
 11
29.75
 21
-145.946
 31
0.0
  0
LINE
  8
3
 62
3
 10
29.75
 20
-145.946
 30
0.0
 11
29.036
 21
-145.708
 31
0.0
  0
LINE
  8
3
 62
3
 10
29.036
 20
-145.708
 30
0.0
 11
28.798
 21
-145.589
 31
0.0
  0
LINE
  8
3
 62
3
 10
28.798
 20
-145.589
 30
0.0
 11
28.679
 21
-145.47
 31
0.0
  0
LINE
  8
3
 62
3
 10
28.679
 20
-145.47
 30
0.0
 11
28.56
 21
-145.232
 31
0.0
  0
LINE
  8
3
 62
3
 10
28.56
 20
-145.232
 30
0.0
 11
28.56
 21
-144.994
 31
0.0
  0
LINE
  8
3
 62
3
 10
28.56
 20
-144.994
 30
0.0
 11
28.798
 21
-144.756
 31
0.0
  0
LINE
  8
3
 62
3
 10
28.798
 20
-144.756
 30
0.0
 11
29.155
 21
-144.637
 31
0.0
  0
LINE
  8
3
 62
3
 10
29.155
 20
-144.637
 30
0.0
 11
29.631
 21
-144.637
 31
0.0
  0
LINE
  8
3
 62
3
 10
29.631
 20
-144.637
 30
0.0
 11
29.988
 21
-144.756
 31
0.0
  0
LINE
  8
3
 62
3
 10
29.988
 20
-144.756
 30
0.0
 11
30.226
 21
-144.994
 31
0.0
  0
LINE
  8
3
 62
3
 10
30.941
 20
-146.065
 30
0.0
 11
33.083
 21
-146.065
 31
0.0
  0
LINE
  8
3
 62
3
 10
34.036
 20
-145.827
 30
0.0
 11
34.036
 21
-144.637
 31
0.0
  0
LINE
  8
3
 62
3
 10
34.036
 20
-144.637
 30
0.0
 11
35.107
 21
-144.637
 31
0.0
  0
LINE
  8
3
 62
3
 10
35.107
 20
-144.637
 30
0.0
 11
35.464
 21
-144.756
 31
0.0
  0
LINE
  8
3
 62
3
 10
35.464
 20
-144.756
 30
0.0
 11
35.583
 21
-144.875
 31
0.0
  0
LINE
  8
3
 62
3
 10
35.583
 20
-144.875
 30
0.0
 11
35.702
 21
-145.113
 31
0.0
  0
LINE
  8
3
 62
3
 10
35.702
 20
-145.113
 30
0.0
 11
35.702
 21
-145.351
 31
0.0
  0
LINE
  8
3
 62
3
 10
35.702
 20
-145.351
 30
0.0
 11
35.583
 21
-145.589
 31
0.0
  0
LINE
  8
3
 62
3
 10
35.583
 20
-145.589
 30
0.0
 11
35.464
 21
-145.708
 31
0.0
  0
LINE
  8
3
 62
3
 10
35.464
 20
-145.708
 30
0.0
 11
35.107
 21
-145.827
 31
0.0
  0
LINE
  8
3
 62
3
 10
35.107
 20
-145.827
 30
0.0
 11
35.464
 21
-145.946
 31
0.0
  0
LINE
  8
3
 62
3
 10
35.464
 20
-145.946
 30
0.0
 11
35.583
 21
-146.065
 31
0.0
  0
LINE
  8
3
 62
3
 10
35.583
 20
-146.065
 30
0.0
 11
35.702
 21
-146.303
 31
0.0
  0
LINE
  8
3
 62
3
 10
35.702
 20
-146.303
 30
0.0
 11
35.702
 21
-146.661
 31
0.0
  0
LINE
  8
3
 62
3
 10
35.702
 20
-146.661
 30
0.0
 11
35.583
 21
-146.899
 31
0.0
  0
LINE
  8
3
 62
3
 10
35.583
 20
-146.899
 30
0.0
 11
35.464
 21
-147.018
 31
0.0
  0
LINE
  8
3
 62
3
 10
35.464
 20
-147.018
 30
0.0
 11
35.107
 21
-147.137
 31
0.0
  0
LINE
  8
3
 62
3
 10
35.107
 20
-147.137
 30
0.0
 11
34.036
 21
-147.137
 31
0.0
  0
LINE
  8
3
 62
3
 10
34.036
 20
-147.137
 30
0.0
 11
34.036
 21
-145.827
 31
0.0
  0
LINE
  8
3
 62
3
 10
34.036
 20
-145.827
 30
0.0
 11
35.107
 21
-145.827
 31
0.0
  0
LINE
  8
3
 62
3
 10
38.202
 20
-144.994
 30
0.0
 11
38.25
 21
-145.089
 31
0.0
  0
LINE
  8
3
 62
3
 10
38.25
 20
-145.089
 30
0.0
 11
38.321
 21
-145.232
 31
0.0
  0
LINE
  8
3
 62
3
 10
38.321
 20
-145.232
 30
0.0
 11
38.441
 21
-145.589
 31
0.0
  0
LINE
  8
3
 62
3
 10
38.441
 20
-145.589
 30
0.0
 11
38.441
 21
-146.184
 31
0.0
  0
LINE
  8
3
 62
3
 10
38.441
 20
-146.184
 30
0.0
 11
38.321
 21
-146.542
 31
0.0
  0
LINE
  8
3
 62
3
 10
38.321
 20
-146.542
 30
0.0
 11
38.202
 21
-146.78
 31
0.0
  0
LINE
  8
3
 62
3
 10
38.202
 20
-146.78
 30
0.0
 11
37.964
 21
-147.018
 31
0.0
  0
LINE
  8
3
 62
3
 10
37.964
 20
-147.018
 30
0.0
 11
37.726
 21
-147.137
 31
0.0
  0
LINE
  8
3
 62
3
 10
37.726
 20
-147.137
 30
0.0
 11
37.25
 21
-147.137
 31
0.0
  0
LINE
  8
3
 62
3
 10
37.25
 20
-147.137
 30
0.0
 11
37.012
 21
-147.018
 31
0.0
  0
LINE
  8
3
 62
3
 10
37.012
 20
-147.018
 30
0.0
 11
36.774
 21
-146.78
 31
0.0
  0
LINE
  8
3
 62
3
 10
36.774
 20
-146.78
 30
0.0
 11
36.655
 21
-146.542
 31
0.0
  0
LINE
  8
3
 62
3
 10
36.655
 20
-146.542
 30
0.0
 11
36.536
 21
-146.184
 31
0.0
  0
LINE
  8
3
 62
3
 10
36.536
 20
-146.184
 30
0.0
 11
36.536
 21
-145.589
 31
0.0
  0
LINE
  8
3
 62
3
 10
36.536
 20
-145.589
 30
0.0
 11
36.655
 21
-145.232
 31
0.0
  0
LINE
  8
3
 62
3
 10
36.655
 20
-145.232
 30
0.0
 11
36.774
 21
-144.994
 31
0.0
  0
LINE
  8
3
 62
3
 10
36.774
 20
-144.994
 30
0.0
 11
37.012
 21
-144.756
 31
0.0
  0
LINE
  8
3
 62
3
 10
37.012
 20
-144.756
 30
0.0
 11
37.25
 21
-144.637
 31
0.0
  0
LINE
  8
3
 62
3
 10
37.25
 20
-144.637
 30
0.0
 11
37.726
 21
-144.637
 31
0.0
  0
LINE
  8
3
 62
3
 10
37.726
 20
-144.637
 30
0.0
 11
37.964
 21
-144.756
 31
0.0
  0
LINE
  8
3
 62
3
 10
37.964
 20
-144.756
 30
0.0
 11
38.202
 21
-144.994
 31
0.0
  0
LINE
  8
3
 62
3
 10
39.155
 20
-144.637
 30
0.0
 11
39.988
 21
-145.887
 31
0.0
  0
LINE
  8
3
 62
3
 10
40.821
 20
-144.637
 30
0.0
 11
39.988
 21
-145.887
 31
0.0
  0
LINE
  8
3
 62
3
 10
39.155
 20
-147.137
 30
0.0
 11
39.988
 21
-145.887
 31
0.0
  0
LINE
  8
3
 62
3
 10
39.988
 20
-145.887
 30
0.0
 11
40.821
 21
-147.137
 31
0.0
  0
LINE
  8
3
 62
3
 10
41.536
 20
-146.065
 30
0.0
 11
43.679
 21
-146.065
 31
0.0
  0
LINE
  8
3
 62
3
 10
45.821
 20
-146.303
 30
0.0
 11
44.631
 21
-146.303
 31
0.0
  0
LINE
  8
3
 62
3
 10
44.631
 20
-146.303
 30
0.0
 11
45.821
 21
-144.637
 31
0.0
  0
LINE
  8
3
 62
3
 10
45.821
 20
-144.637
 30
0.0
 11
45.821
 21
-146.303
 31
0.0
  0
LINE
  8
3
 62
3
 10
45.821
 20
-147.137
 30
0.0
 11
45.821
 21
-146.303
 31
0.0
  0
LINE
  8
3
 62
3
 10
45.821
 20
-146.303
 30
0.0
 11
46.417
 21
-146.303
 31
0.0
  0
LINE
  8
3
 62
3
 10
47.012
 20
-146.661
 30
0.0
 11
47.131
 21
-146.899
 31
0.0
  0
LINE
  8
3
 62
3
 10
47.131
 20
-146.899
 30
0.0
 11
47.25
 21
-147.018
 31
0.0
  0
LINE
  8
3
 62
3
 10
47.25
 20
-147.018
 30
0.0
 11
47.607
 21
-147.137
 31
0.0
  0
LINE
  8
3
 62
3
 10
47.607
 20
-147.137
 30
0.0
 11
47.964
 21
-147.137
 31
0.0
  0
LINE
  8
3
 62
3
 10
47.964
 20
-147.137
 30
0.0
 11
48.321
 21
-147.018
 31
0.0
  0
LINE
  8
3
 62
3
 10
48.321
 20
-147.018
 30
0.0
 11
48.56
 21
-146.78
 31
0.0
  0
LINE
  8
3
 62
3
 10
48.56
 20
-146.78
 30
0.0
 11
48.679
 21
-146.422
 31
0.0
  0
LINE
  8
3
 62
3
 10
48.679
 20
-146.422
 30
0.0
 11
48.679
 21
-146.184
 31
0.0
  0
LINE
  8
3
 62
3
 10
48.679
 20
-146.184
 30
0.0
 11
48.56
 21
-145.827
 31
0.0
  0
LINE
  8
3
 62
3
 10
48.56
 20
-145.827
 30
0.0
 11
48.441
 21
-145.708
 31
0.0
  0
LINE
  8
3
 62
3
 10
48.441
 20
-145.708
 30
0.0
 11
48.202
 21
-145.589
 31
0.0
  0
LINE
  8
3
 62
3
 10
48.202
 20
-145.589
 30
0.0
 11
47.845
 21
-145.589
 31
0.0
  0
LINE
  8
3
 62
3
 10
47.845
 20
-145.589
 30
0.0
 11
48.56
 21
-144.637
 31
0.0
  0
LINE
  8
3
 62
3
 10
48.56
 20
-144.637
 30
0.0
 11
47.25
 21
-144.637
 31
0.0
  0
LINE
  8
3
 62
3
 10
49.512
 20
-145.232
 30
0.0
 11
49.512
 21
-145.113
 31
0.0
  0
LINE
  8
3
 62
3
 10
49.512
 20
-145.113
 30
0.0
 11
49.631
 21
-144.875
 31
0.0
  0
LINE
  8
3
 62
3
 10
49.631
 20
-144.875
 30
0.0
 11
49.75
 21
-144.756
 31
0.0
  0
LINE
  8
3
 62
3
 10
49.75
 20
-144.756
 30
0.0
 11
49.988
 21
-144.637
 31
0.0
  0
LINE
  8
3
 62
3
 10
49.988
 20
-144.637
 30
0.0
 11
50.464
 21
-144.637
 31
0.0
  0
LINE
  8
3
 62
3
 10
50.464
 20
-144.637
 30
0.0
 11
50.702
 21
-144.756
 31
0.0
  0
LINE
  8
3
 62
3
 10
50.702
 20
-144.756
 30
0.0
 11
50.821
 21
-144.875
 31
0.0
  0
LINE
  8
3
 62
3
 10
50.821
 20
-144.875
 30
0.0
 11
50.941
 21
-145.113
 31
0.0
  0
LINE
  8
3
 62
3
 10
50.941
 20
-145.113
 30
0.0
 11
50.941
 21
-145.351
 31
0.0
  0
LINE
  8
3
 62
3
 10
50.941
 20
-145.351
 30
0.0
 11
50.821
 21
-145.589
 31
0.0
  0
LINE
  8
3
 62
3
 10
50.821
 20
-145.589
 30
0.0
 11
50.583
 21
-145.946
 31
0.0
  0
LINE
  8
3
 62
3
 10
50.583
 20
-145.946
 30
0.0
 11
49.393
 21
-147.137
 31
0.0
  0
LINE
  8
3
 62
3
 10
49.393
 20
-147.137
 30
0.0
 11
51.06
 21
-147.137
 31
0.0
  0
LINE
  8
3
 62
3
 10
51.774
 20
-146.065
 30
0.0
 11
53.917
 21
-146.065
 31
0.0
  0
LINE
  8
3
 62
3
 10
56.655
 20
-146.542
 30
0.0
 11
56.536
 21
-146.78
 31
0.0
  0
LINE
  8
3
 62
3
 10
56.536
 20
-146.78
 30
0.0
 11
56.298
 21
-147.018
 31
0.0
  0
LINE
  8
3
 62
3
 10
56.298
 20
-147.018
 30
0.0
 11
56.06
 21
-147.137
 31
0.0
  0
LINE
  8
3
 62
3
 10
56.06
 20
-147.137
 30
0.0
 11
55.583
 21
-147.137
 31
0.0
  0
LINE
  8
3
 62
3
 10
55.583
 20
-147.137
 30
0.0
 11
55.345
 21
-147.018
 31
0.0
  0
LINE
  8
3
 62
3
 10
55.345
 20
-147.018
 30
0.0
 11
55.107
 21
-146.78
 31
0.0
  0
LINE
  8
3
 62
3
 10
55.107
 20
-146.78
 30
0.0
 11
54.988
 21
-146.542
 31
0.0
  0
LINE
  8
3
 62
3
 10
54.988
 20
-146.542
 30
0.0
 11
54.869
 21
-146.184
 31
0.0
  0
LINE
  8
3
 62
3
 10
54.869
 20
-146.184
 30
0.0
 11
54.869
 21
-145.589
 31
0.0
  0
LINE
  8
3
 62
3
 10
54.869
 20
-145.589
 30
0.0
 11
54.988
 21
-145.232
 31
0.0
  0
LINE
  8
3
 62
3
 10
54.988
 20
-145.232
 30
0.0
 11
55.107
 21
-144.994
 31
0.0
  0
LINE
  8
3
 62
3
 10
55.107
 20
-144.994
 30
0.0
 11
55.345
 21
-144.756
 31
0.0
  0
LINE
  8
3
 62
3
 10
55.345
 20
-144.756
 30
0.0
 11
55.583
 21
-144.637
 31
0.0
  0
LINE
  8
3
 62
3
 10
55.583
 20
-144.637
 30
0.0
 11
56.06
 21
-144.637
 31
0.0
  0
LINE
  8
3
 62
3
 10
56.06
 20
-144.637
 30
0.0
 11
56.298
 21
-144.756
 31
0.0
  0
LINE
  8
3
 62
3
 10
56.298
 20
-144.756
 30
0.0
 11
56.536
 21
-144.994
 31
0.0
  0
LINE
  8
3
 62
3
 10
56.536
 20
-144.994
 30
0.0
 11
56.655
 21
-145.232
 31
0.0
  0
LINE
  8
3
 62
3
 10
57.369
 20
-145.827
 30
0.0
 11
57.369
 21
-144.637
 31
0.0
  0
LINE
  8
3
 62
3
 10
57.369
 20
-144.637
 30
0.0
 11
58.44
 21
-144.637
 31
0.0
  0
LINE
  8
3
 62
3
 10
58.44
 20
-144.637
 30
0.0
 11
58.798
 21
-144.756
 31
0.0
  0
LINE
  8
3
 62
3
 10
58.798
 20
-144.756
 30
0.0
 11
58.917
 21
-144.875
 31
0.0
  0
LINE
  8
3
 62
3
 10
58.917
 20
-144.875
 30
0.0
 11
59.036
 21
-145.113
 31
0.0
  0
LINE
  8
3
 62
3
 10
59.036
 20
-145.113
 30
0.0
 11
59.036
 21
-145.351
 31
0.0
  0
LINE
  8
3
 62
3
 10
59.036
 20
-145.351
 30
0.0
 11
58.917
 21
-145.589
 31
0.0
  0
LINE
  8
3
 62
3
 10
58.917
 20
-145.589
 30
0.0
 11
58.798
 21
-145.708
 31
0.0
  0
LINE
  8
3
 62
3
 10
58.798
 20
-145.708
 30
0.0
 11
58.441
 21
-145.827
 31
0.0
  0
LINE
  8
3
 62
3
 10
58.441
 20
-145.827
 30
0.0
 11
58.798
 21
-145.946
 31
0.0
  0
LINE
  8
3
 62
3
 10
58.798
 20
-145.946
 30
0.0
 11
58.917
 21
-146.065
 31
0.0
  0
LINE
  8
3
 62
3
 10
58.917
 20
-146.065
 30
0.0
 11
59.036
 21
-146.303
 31
0.0
  0
LINE
  8
3
 62
3
 10
59.036
 20
-146.303
 30
0.0
 11
59.036
 21
-146.661
 31
0.0
  0
LINE
  8
3
 62
3
 10
59.036
 20
-146.661
 30
0.0
 11
58.917
 21
-146.899
 31
0.0
  0
LINE
  8
3
 62
3
 10
58.917
 20
-146.899
 30
0.0
 11
58.798
 21
-147.018
 31
0.0
  0
LINE
  8
3
 62
3
 10
58.798
 20
-147.018
 30
0.0
 11
58.441
 21
-147.137
 31
0.0
  0
LINE
  8
3
 62
3
 10
58.441
 20
-147.137
 30
0.0
 11
57.369
 21
-147.137
 31
0.0
  0
LINE
  8
3
 62
3
 10
57.369
 20
-147.137
 30
0.0
 11
57.369
 21
-145.827
 31
0.0
  0
LINE
  8
3
 62
3
 10
57.369
 20
-145.827
 30
0.0
 11
58.44
 21
-145.827
 31
0.0
  0
LINE
  8
3
 62
3
 10
59.869
 20
-146.065
 30
0.0
 11
62.012
 21
-146.065
 31
0.0
  0
LINE
  8
3
 62
3
 10
63.798
 20
-147.137
 30
0.0
 11
63.798
 21
-144.637
 31
0.0
  0
LINE
  8
3
 62
3
 10
63.798
 20
-144.637
 30
0.0
 11
62.964
 21
-144.637
 31
0.0
  0
LINE
  8
3
 62
3
 10
63.798
 20
-144.637
 30
0.0
 11
64.631
 21
-144.637
 31
0.0
  0
LINE
  8
3
 62
3
 10
65.107
 20
-145.946
 30
0.0
 11
66.179
 21
-145.946
 31
0.0
  0
LINE
  8
3
 62
3
 10
66.179
 20
-145.946
 30
0.0
 11
66.536
 21
-145.827
 31
0.0
  0
LINE
  8
3
 62
3
 10
66.536
 20
-145.827
 30
0.0
 11
66.655
 21
-145.708
 31
0.0
  0
LINE
  8
3
 62
3
 10
66.655
 20
-145.708
 30
0.0
 11
66.774
 21
-145.47
 31
0.0
  0
LINE
  8
3
 62
3
 10
66.774
 20
-145.47
 30
0.0
 11
66.774
 21
-145.113
 31
0.0
  0
LINE
  8
3
 62
3
 10
66.774
 20
-145.113
 30
0.0
 11
66.655
 21
-144.875
 31
0.0
  0
LINE
  8
3
 62
3
 10
66.655
 20
-144.875
 30
0.0
 11
66.536
 21
-144.756
 31
0.0
  0
LINE
  8
3
 62
3
 10
66.536
 20
-144.756
 30
0.0
 11
66.179
 21
-144.637
 31
0.0
  0
LINE
  8
3
 62
3
 10
66.179
 20
-144.637
 30
0.0
 11
65.107
 21
-144.637
 31
0.0
  0
LINE
  8
3
 62
3
 10
65.107
 20
-144.637
 30
0.0
 11
65.107
 21
-145.946
 31
0.0
  0
LINE
  8
3
 62
3
 10
65.107
 20
-145.946
 30
0.0
 11
65.107
 21
-147.137
 31
0.0
  0
LINE
  8
3
 62
3
 10
67.607
 20
-146.065
 30
0.0
 11
69.75
 21
-146.065
 31
0.0
  0
LINE
  8
3
 62
3
 10
70.702
 20
-144.637
 30
0.0
 11
71.655
 21
-147.137
 31
0.0
  0
LINE
  8
3
 62
3
 10
71.655
 20
-147.137
 30
0.0
 11
72.607
 21
-144.637
 31
0.0
  0
LINE
  8
3
 62
3
 10
73.083
 20
-145.113
 30
0.0
 11
73.321
 21
-144.994
 31
0.0
  0
LINE
  8
3
 62
3
 10
73.321
 20
-144.994
 30
0.0
 11
73.679
 21
-144.637
 31
0.0
  0
LINE
  8
3
 62
3
 10
73.679
 20
-144.637
 30
0.0
 11
73.679
 21
-147.137
 31
0.0
  0
LINE
  8
3
 62
3
 10
76.536
 20
-146.661
 30
0.0
 11
76.298
 21
-147.018
 31
0.0
  0
LINE
  8
3
 62
3
 10
76.298
 20
-147.018
 30
0.0
 11
75.94
 21
-147.137
 31
0.0
  0
LINE
  8
3
 62
3
 10
75.94
 20
-147.137
 30
0.0
 11
75.702
 21
-147.137
 31
0.0
  0
LINE
  8
3
 62
3
 10
75.702
 20
-147.137
 30
0.0
 11
75.345
 21
-147.018
 31
0.0
  0
LINE
  8
3
 62
3
 10
75.345
 20
-147.018
 30
0.0
 11
75.107
 21
-146.661
 31
0.0
  0
LINE
  8
3
 62
3
 10
75.107
 20
-146.661
 30
0.0
 11
74.988
 21
-146.065
 31
0.0
  0
LINE
  8
3
 62
3
 10
74.988
 20
-146.065
 30
0.0
 11
74.988
 21
-145.708
 31
0.0
  0
LINE
  8
3
 62
3
 10
74.988
 20
-145.708
 30
0.0
 11
75.107
 21
-145.113
 31
0.0
  0
LINE
  8
3
 62
3
 10
75.107
 20
-145.113
 30
0.0
 11
75.345
 21
-144.756
 31
0.0
  0
LINE
  8
3
 62
3
 10
75.345
 20
-144.756
 30
0.0
 11
75.702
 21
-144.637
 31
0.0
  0
LINE
  8
3
 62
3
 10
75.702
 20
-144.637
 30
0.0
 11
75.94
 21
-144.637
 31
0.0
  0
LINE
  8
3
 62
3
 10
75.94
 20
-144.637
 30
0.0
 11
76.298
 21
-144.756
 31
0.0
  0
LINE
  8
3
 62
3
 10
76.298
 20
-144.756
 30
0.0
 11
76.536
 21
-145.113
 31
0.0
  0
LINE
  8
3
 62
3
 10
76.536
 20
-145.113
 30
0.0
 11
76.655
 21
-145.708
 31
0.0
  0
LINE
  8
3
 62
3
 10
76.655
 20
-145.708
 30
0.0
 11
76.655
 21
-146.065
 31
0.0
  0
LINE
  8
3
 62
3
 10
76.655
 20
-146.065
 30
0.0
 11
76.536
 21
-146.661
 31
0.0
  0
LINE
  8
3
 62
3
 10
77.452
 20
-146.478
 30
0.0
 11
77.369
 21
-146.065
 31
0.0
  0
LINE
  8
3
 62
3
 10
77.369
 20
-146.065
 30
0.0
 11
77.369
 21
-145.708
 31
0.0
  0
LINE
  8
3
 62
3
 10
77.369
 20
-145.708
 30
0.0
 11
77.488
 21
-145.113
 31
0.0
  0
LINE
  8
3
 62
3
 10
77.488
 20
-145.113
 30
0.0
 11
77.726
 21
-144.756
 31
0.0
  0
LINE
  8
3
 62
3
 10
77.726
 20
-144.756
 30
0.0
 11
78.083
 21
-144.637
 31
0.0
  0
LINE
  8
3
 62
3
 10
78.083
 20
-144.637
 30
0.0
 11
78.321
 21
-144.637
 31
0.0
  0
LINE
  8
3
 62
3
 10
78.321
 20
-144.637
 30
0.0
 11
78.679
 21
-144.756
 31
0.0
  0
LINE
  8
3
 62
3
 10
78.679
 20
-144.756
 30
0.0
 11
78.917
 21
-145.113
 31
0.0
  0
LINE
  8
3
 62
3
 10
78.917
 20
-145.113
 30
0.0
 11
79.036
 21
-145.708
 31
0.0
  0
LINE
  8
3
 62
3
 10
79.036
 20
-145.708
 30
0.0
 11
79.036
 21
-146.065
 31
0.0
  0
LINE
  8
3
 62
3
 10
79.036
 20
-146.065
 30
0.0
 11
78.917
 21
-146.661
 31
0.0
  0
LINE
  8
3
 62
3
 10
78.917
 20
-146.661
 30
0.0
 11
78.679
 21
-147.018
 31
0.0
  0
LINE
  8
3
 62
3
 10
78.679
 20
-147.018
 30
0.0
 11
78.321
 21
-147.137
 31
0.0
  0
LINE
  8
3
 62
3
 10
78.321
 20
-147.137
 30
0.0
 11
78.083
 21
-147.137
 31
0.0
  0
LINE
  8
3
 62
3
 10
78.083
 20
-147.137
 30
0.0
 11
77.726
 21
-147.018
 31
0.0
  0
LINE
  8
3
 62
3
 10
77.726
 20
-147.018
 30
0.0
 11
77.488
 21
-146.661
 31
0.0
  0
LINE
  8
3
 62
3
 10
77.488
 20
-146.661
 30
0.0
 11
77.452
 21
-146.478
 31
0.0
  0
ENDSEC
  0
EOF
