  0
SECTION
  2
HEADER
  9
$ACADVER
  1
AC1009
  9
$DWGCODEPAGE
  3
ANSI_1252
  9
$EXTMIN
 10
1e+20
 20
1e+20
 30
1e+20
  9
$EXTMAX
 10
-1e+20
 20
-1e+20
 30
-1e+20
  9
$LIMMIN
 10
0.0
 20
0.0
  9
$LIMMAX
 10
420.0
 20
297.0
  9
$TDCREATE
 40
2461042.7516203704
  9
$TDUPDATE
 40
2461042.7516203704
  9
$ANGBASE
 50
0.0
  9
$ANGDIR
 70
0
  9
$PEXTMIN
 10
1e+20
 20
1e+20
 30
1e+20
  9
$PEXTMAX
 10
-1e+20
 20
-1e+20
 30
-1e+20
  9
$PLIMMIN
 10
0.0
 20
0.0
  9
$PLIMMAX
 10
420.0
 20
297.0
  0
ENDSEC
  0
SECTION
  2
TABLES
  0
TABLE
  2
VPORT
 70
1
  0
VPORT
  2
*Active
 70
0
 10
0.0
 20
0.0
 11
1.0
 21
1.0
 12
0.0
 22
0.0
 13
0.0
 23
0.0
 14
0.5
 24
0.5
 15
0.5
 25
0.5
 16
0.0
 26
0.0
 36
1.0
 17
0.0
 27
0.0
 37
0.0
 40
1000.0
 41
1.34
 42
50.0
 43
0.0
 44
0.0
 50
0.0
 51
0.0
 71
0
 72
1000
 73
1
 74
3
 75
0
 76
0
 77
0
 78
0
  0
ENDTAB
  0
TABLE
  2
LTYPE
 70
3
  0
LTYPE
  2
ByBlock
 70
0
  3

 72
65
 73
0
 40
0.0
  0
LTYPE
  2
ByLayer
 70
0
  3

 72
65
 73
0
 40
0.0
  0
LTYPE
  2
Continuous
 70
0
  3

 72
65
 73
0
 40
0.0
  0
ENDTAB
  0
TABLE
  2
LAYER
 70
2
  0
LAYER
  2
0
 70
0
 62
7
  6
Continuous
  0
LAYER
  2
Defpoints
 70
0
 62
7
  6
Continuous
  0
ENDTAB
  0
TABLE
  2
STYLE
 70
1
  0
STYLE
  2
Standard
 70
0
 40
0.0
 41
1.0
 50
0.0
 71
0
 42
2.5
  3
txt
  4

  0
ENDTAB
  0
TABLE
  2
VIEW
 70
0
  0
ENDTAB
  0
TABLE
  2
UCS
 70
0
  0
ENDTAB
  0
TABLE
  2
APPID
 70
3
  0
APPID
  2
ACAD
 70
0
  0
APPID
  2
HATCHBACKGROUNDCOLOR
 70
0
  0
APPID
  2
EZDXF
 70
0
  0
ENDTAB
  0
TABLE
  2
DIMSTYLE
 70
1
  0
DIMSTYLE
  2
Standard
 70
0
  3

  4

  5

  6

  7

 40
1.0
 41
2.5
 42
0.625
 43
3.75
 44
1.25
 45
0.0
 46
0.0
 47
0.0
 48
0.0
140
2.5
141
2.5
142
0.0
143
0.03937007874
144
1.0
145
0.0
146
1.0
147
0.625
 71
0
 72
0
 73
0
 74
0
 75
0
 76
0
 77
1
 78
8
170
0
171
3
172
1
173
0
174
0
175
0
176
0
177
0
178
0
  0
ENDTAB
  0
ENDSEC
  0
SECTION
  2
BLOCKS
  0
BLOCK
  8
0
  2
$Model_Space
 70
0
 10
0.0
 20
0.0
 30
0.0
  3
$Model_Space
  1

1001
EZDXF
1000
WRITTEN_BY_EZDXF
1000
1.3.4 @ 2026-01-01T17:02:20.264624+00:00
  0
ENDBLK
  8
0
  0
BLOCK
  8
0
  2
$Paper_Space
 70
0
 10
0.0
 20
0.0
 30
0.0
  3
$Paper_Space
  1

  0
ENDBLK
  8
0
  0
ENDSEC
  0
SECTION
  2
ENTITIES
  0
LINE
  8
1
 62
0
 10
-218.065
 20
-192.237
 30
0.0
 11
-218.065
 21
-191.637
 31
0.0
  0
LINE
  8
1
 62
0
 10
-218.065
 20
-191.637
 30
0.0
 11
-233.065
 21
-191.637
 31
0.0
  0
LINE
  8
1
 62
0
 10
-233.065
 20
-191.637
 30
0.0
 11
-233.065
 21
-192.637
 31
0.0
  0
LINE
  8
1
 62
0
 10
-233.065
 20
-192.637
 30
0.0
 11
-218.065
 21
-192.637
 31
0.0
  0
LINE
  8
1
 62
0
 10
-218.065
 20
-192.637
 30
0.0
 11
-218.065
 21
-192.237
 31
0.0
  0
LINE
  8
1
 62
0
 10
-218.065
 20
-192.637
 30
0.0
 11
-208.065
 21
-192.637
 31
0.0
  0
LINE
  8
1
 62
0
 10
-208.065
 20
-192.637
 30
0.0
 11
-208.065
 21
-193.137
 31
0.0
  0
LINE
  8
1
 62
0
 10
-208.065
 20
-193.137
 30
0.0
 11
-125.75
 21
-193.137
 31
0.0
  0
LINE
  8
1
 62
0
 10
-125.75
 20
-137.303
 30
0.0
 11
-123.75
 21
-136.149
 31
0.0
  0
LINE
  8
1
 62
0
 10
-123.75
 20
-136.149
 30
0.0
 11
-123.75
 21
-82.625
 31
0.0
  0
LINE
  8
1
 62
0
 10
-123.75
 20
-82.625
 30
0.0
 11
-125.75
 21
-81.47
 31
0.0
  0
LINE
  8
1
 62
0
 10
-125.75
 20
-137.303
 30
0.0
 11
-125.75
 21
-81.47
 31
0.0
  0
LINE
  8
1
 62
0
 10
-125.75
 20
-25.637
 30
0.0
 11
-207.5
 21
-25.637
 31
0.0
  0
LINE
  8
1
 62
0
 10
-207.5
 20
-25.637
 30
0.0
 11
-208.065
 21
-25.637
 31
0.0
  0
LINE
  8
1
 62
0
 10
-208.065
 20
-25.637
 30
0.0
 11
-208.065
 21
-26.137
 31
0.0
  0
LINE
  8
1
 62
0
 10
-208.065
 20
-26.137
 30
0.0
 11
-290.065
 21
-26.137
 31
0.0
  0
LINE
  8
1
 62
0
 10
-290.065
 20
-26.137
 30
0.0
 11
-290.065
 21
-81.47
 31
0.0
  0
LINE
  8
1
 62
0
 10
-290.065
 20
-81.47
 30
0.0
 11
-292.065
 21
-82.625
 31
0.0
  0
LINE
  8
1
 62
0
 10
-292.065
 20
-82.625
 30
0.0
 11
-292.065
 21
-136.149
 31
0.0
  0
LINE
  8
1
 62
0
 10
-292.065
 20
-136.149
 30
0.0
 11
-290.065
 21
-137.303
 31
0.0
  0
LINE
  8
1
 62
0
 10
-290.065
 20
-137.303
 30
0.0
 11
-290.065
 21
-192.637
 31
0.0
  0
LINE
  8
1
 62
0
 10
-290.065
 20
-192.637
 30
0.0
 11
-233.065
 21
-192.637
 31
0.0
  0
LINE
  8
1
 62
0
 10
-207.5
 20
-193.137
 30
0.0
 11
-207.5
 21
-273.637
 31
0.0
  0
LINE
  8
1
 62
0
 10
-207.5
 20
-273.637
 30
0.0
 11
-125.75
 21
-273.637
 31
0.0
  0
LINE
  8
1
 62
0
 10
-125.75
 20
-273.637
 30
0.0
 11
-125.75
 21
-274.637
 31
0.0
  0
LINE
  8
1
 62
0
 10
-125.75
 20
-274.637
 30
0.0
 11
-30.0
 21
-274.637
 31
0.0
  0
LINE
  8
1
 62
0
 10
-30.0
 20
-274.637
 30
0.0
 11
30.0
 21
-274.637
 31
0.0
  0
LINE
  8
1
 62
0
 10
30.0
 20
-274.637
 30
0.0
 11
125.75
 21
-274.637
 31
0.0
  0
LINE
  8
1
 62
0
 10
125.75
 20
-274.637
 30
0.0
 11
125.75
 21
-273.637
 31
0.0
  0
LINE
  8
1
 62
0
 10
125.75
 20
-273.637
 30
0.0
 11
207.5
 21
-273.637
 31
0.0
  0
LINE
  8
1
 62
0
 10
207.5
 20
-273.637
 30
0.0
 11
207.5
 21
-193.137
 31
0.0
  0
LINE
  8
1
 62
0
 10
207.5
 20
-193.137
 30
0.0
 11
208.065
 21
-193.137
 31
0.0
  0
LINE
  8
1
 62
0
 10
208.065
 20
-193.137
 30
0.0
 11
208.065
 21
-192.637
 31
0.0
  0
LINE
  8
1
 62
0
 10
208.065
 20
-192.637
 30
0.0
 11
233.065
 21
-192.637
 31
0.0
  0
LINE
  8
1
 62
0
 10
233.065
 20
-192.637
 30
0.0
 11
290.065
 21
-192.637
 31
0.0
  0
LINE
  8
1
 62
0
 10
290.065
 20
-192.637
 30
0.0
 11
290.065
 21
-137.303
 31
0.0
  0
LINE
  8
1
 62
0
 10
290.065
 20
-137.303
 30
0.0
 11
292.065
 21
-136.149
 31
0.0
  0
LINE
  8
1
 62
0
 10
292.065
 20
-136.149
 30
0.0
 11
292.065
 21
-82.625
 31
0.0
  0
LINE
  8
1
 62
0
 10
292.065
 20
-82.625
 30
0.0
 11
290.065
 21
-81.47
 31
0.0
  0
LINE
  8
1
 62
0
 10
290.065
 20
-81.47
 30
0.0
 11
290.065
 21
-26.137
 31
0.0
  0
LINE
  8
1
 62
0
 10
290.065
 20
-26.137
 30
0.0
 11
208.065
 21
-26.137
 31
0.0
  0
LINE
  8
1
 62
0
 10
208.065
 20
-26.137
 30
0.0
 11
208.065
 21
-25.637
 31
0.0
  0
LINE
  8
1
 62
0
 10
208.065
 20
-25.637
 30
0.0
 11
207.5
 21
-25.637
 31
0.0
  0
LINE
  8
1
 62
0
 10
207.5
 20
-25.637
 30
0.0
 11
207.5
 21
54.863
 31
0.0
  0
LINE
  8
1
 62
0
 10
207.5
 20
54.863
 30
0.0
 11
125.75
 21
54.863
 31
0.0
  0
LINE
  8
1
 62
0
 10
125.75
 20
54.863
 30
0.0
 11
125.75
 21
55.863
 31
0.0
  0
LINE
  8
1
 62
0
 10
125.75
 20
55.863
 30
0.0
 11
117.378
 21
70.363
 31
0.0
  0
ARC
  8
1
 62
0
 10
114.78
 20
68.863
 30
0.0
 40
3.0
 50
29.999591
 51
89.99898
  0
LINE
  8
1
 62
0
 10
114.78
 20
71.863
 30
0.0
 11
-114.78
 21
71.863
 31
0.0
  0
ARC
  8
1
 62
0
 10
-114.78
 20
68.863
 30
0.0
 40
3.0
 50
90.00102
 51
150.000409
  0
LINE
  8
1
 62
0
 10
-117.378
 20
70.363
 30
0.0
 11
-125.75
 21
55.863
 31
0.0
  0
LINE
  8
1
 62
0
 10
-125.75
 20
55.863
 30
0.0
 11
-125.75
 21
54.863
 31
0.0
  0
LINE
  8
1
 62
0
 10
-125.75
 20
54.863
 30
0.0
 11
-207.5
 21
54.863
 31
0.0
  0
LINE
  8
1
 62
0
 10
-207.5
 20
54.863
 30
0.0
 11
-207.5
 21
-25.637
 31
0.0
  0
LINE
  8
1
 62
0
 10
125.75
 20
-193.137
 30
0.0
 11
207.5
 21
-193.137
 31
0.0
  0
LINE
  8
1
 62
0
 10
125.75
 20
-137.303
 30
0.0
 11
123.75
 21
-136.149
 31
0.0
  0
LINE
  8
1
 62
0
 10
123.75
 20
-136.149
 30
0.0
 11
123.75
 21
-82.625
 31
0.0
  0
LINE
  8
1
 62
0
 10
123.75
 20
-82.625
 30
0.0
 11
125.75
 21
-81.47
 31
0.0
  0
LINE
  8
1
 62
0
 10
125.75
 20
-137.303
 30
0.0
 11
125.75
 21
-81.47
 31
0.0
  0
LINE
  8
1
 62
0
 10
125.75
 20
-25.637
 30
0.0
 11
207.5
 21
-25.637
 31
0.0
  0
LINE
  8
1
 62
0
 10
125.75
 20
82.263
 30
0.0
 11
125.75
 21
248.863
 31
0.0
  0
LINE
  8
1
 62
0
 10
125.75
 20
248.863
 30
0.0
 11
123.25
 21
248.863
 31
0.0
  0
LINE
  8
1
 62
0
 10
123.25
 20
248.863
 30
0.0
 11
123.25
 21
258.863
 31
0.0
  0
LINE
  8
1
 62
0
 10
123.25
 20
258.863
 30
0.0
 11
125.25
 21
258.863
 31
0.0
  0
LINE
  8
1
 62
0
 10
125.25
 20
258.863
 30
0.0
 11
125.25
 21
268.863
 31
0.0
  0
LINE
  8
1
 62
0
 10
125.25
 20
268.863
 30
0.0
 11
115.25
 21
274.637
 31
0.0
  0
LINE
  8
1
 62
0
 10
115.25
 20
274.637
 30
0.0
 11
-115.25
 21
274.637
 31
0.0
  0
LINE
  8
1
 62
0
 10
-115.25
 20
274.637
 30
0.0
 11
-125.25
 21
268.863
 31
0.0
  0
LINE
  8
1
 62
0
 10
-125.25
 20
268.863
 30
0.0
 11
-125.25
 21
258.863
 31
0.0
  0
LINE
  8
1
 62
0
 10
-125.25
 20
258.863
 30
0.0
 11
-123.25
 21
258.863
 31
0.0
  0
LINE
  8
1
 62
0
 10
-123.25
 20
258.863
 30
0.0
 11
-123.25
 21
248.863
 31
0.0
  0
LINE
  8
1
 62
0
 10
-123.25
 20
248.863
 30
0.0
 11
-125.75
 21
248.863
 31
0.0
  0
LINE
  8
1
 62
0
 10
-125.75
 20
248.863
 30
0.0
 11
-125.75
 21
81.863
 31
0.0
  0
LINE
  8
1
 62
0
 10
-125.75
 20
81.863
 30
0.0
 11
125.75
 21
81.863
 31
0.0
  0
LINE
  8
1
 62
0
 10
125.75
 20
81.863
 30
0.0
 11
125.75
 21
82.263
 31
0.0
  0
LINE
  8
1
 62
0
 10
233.065
 20
-192.637
 30
0.0
 11
233.065
 21
-191.637
 31
0.0
  0
LINE
  8
1
 62
0
 10
233.065
 20
-191.637
 30
0.0
 11
218.065
 21
-191.637
 31
0.0
  0
LINE
  8
1
 62
0
 10
218.065
 20
-191.637
 30
0.0
 11
218.065
 21
-192.637
 31
0.0
  0
LINE
  8
1
 62
0
 10
30.0
 20
-274.637
 30
0.0
 11
21.34
 21
-259.637
 31
0.0
  0
LINE
  8
1
 62
0
 10
21.34
 20
-259.637
 30
0.0
 11
-21.34
 21
-259.637
 31
0.0
  0
LINE
  8
1
 62
0
 10
-21.34
 20
-259.637
 30
0.0
 11
-30.0
 21
-274.637
 31
0.0
  0
LINE
  8
2
 62
1
 10
-125.75
 20
-273.637
 30
0.0
 11
-125.75
 21
-193.137
 31
0.0
  0
LINE
  8
2
 62
1
 10
-125.75
 20
-193.137
 30
0.0
 11
125.75
 21
-193.137
 31
0.0
  0
LINE
  8
2
 62
1
 10
125.75
 20
-193.137
 30
0.0
 11
125.75
 21
-273.637
 31
0.0
  0
LINE
  8
2
 62
1
 10
125.75
 20
-193.137
 30
0.0
 11
125.75
 21
-137.303
 31
0.0
  0
LINE
  8
2
 62
1
 10
125.75
 20
-81.47
 30
0.0
 11
125.75
 21
-25.637
 31
0.0
  0
LINE
  8
2
 62
1
 10
125.75
 20
-25.637
 30
0.0
 11
-125.75
 21
-25.637
 31
0.0
  0
LINE
  8
2
 62
1
 10
-125.75
 20
-25.637
 30
0.0
 11
-125.75
 21
-81.47
 31
0.0
  0
LINE
  8
2
 62
1
 10
-125.75
 20
-25.637
 30
0.0
 11
-125.75
 21
54.863
 31
0.0
  0
LINE
  8
2
 62
1
 10
-125.75
 20
55.863
 30
0.0
 11
125.75
 21
55.863
 31
0.0
  0
LINE
  8
2
 62
1
 10
125.75
 20
54.863
 30
0.0
 11
125.75
 21
-25.637
 31
0.0
  0
LINE
  8
2
 62
1
 10
208.065
 20
-192.637
 30
0.0
 11
208.065
 21
-26.137
 31
0.0
  0
LINE
  8
2
 62
1
 10
123.25
 20
248.863
 30
0.0
 11
-123.25
 21
248.863
 31
0.0
  0
LINE
  8
2
 62
1
 10
-208.065
 20
-26.137
 30
0.0
 11
-208.065
 21
-192.637
 31
0.0
  0
LINE
  8
2
 62
1
 10
-125.75
 20
-193.137
 30
0.0
 11
-125.75
 21
-137.303
 31
0.0
  0
LINE
  8
3
 62
3
 10
-280.922
 20
-214.637
 30
0.0
 11
-280.922
 21
-217.065
 31
0.0
  0
LINE
  8
3
 62
3
 10
-280.922
 20
-217.065
 30
0.0
 11
-279.494
 21
-215.637
 31
0.0
  0
LINE
  8
3
 62
3
 10
-280.922
 20
-217.065
 30
0.0
 11
-280.922
 21
-217.637
 31
0.0
  0
LINE
  8
3
 62
3
 10
-281.779
 20
-217.208
 30
0.0
 11
-282.065
 21
-217.494
 31
0.0
  0
LINE
  8
3
 62
3
 10
-282.065
 20
-217.494
 30
0.0
 11
-282.351
 21
-217.637
 31
0.0
  0
LINE
  8
3
 62
3
 10
-282.351
 20
-217.637
 30
0.0
 11
-282.779
 21
-217.637
 31
0.0
  0
LINE
  8
3
 62
3
 10
-282.779
 20
-217.637
 30
0.0
 11
-283.065
 21
-217.494
 31
0.0
  0
LINE
  8
3
 62
3
 10
-283.065
 20
-217.494
 30
0.0
 11
-283.351
 21
-217.208
 31
0.0
  0
LINE
  8
3
 62
3
 10
-283.351
 20
-217.208
 30
0.0
 11
-283.494
 21
-216.78
 31
0.0
  0
LINE
  8
3
 62
3
 10
-283.494
 20
-216.78
 30
0.0
 11
-283.494
 21
-216.494
 31
0.0
  0
LINE
  8
3
 62
3
 10
-283.494
 20
-216.494
 30
0.0
 11
-283.351
 21
-216.065
 31
0.0
  0
LINE
  8
3
 62
3
 10
-283.351
 20
-216.065
 30
0.0
 11
-283.065
 21
-215.78
 31
0.0
  0
LINE
  8
3
 62
3
 10
-283.065
 20
-215.78
 30
0.0
 11
-282.779
 21
-215.637
 31
0.0
  0
LINE
  8
3
 62
3
 10
-282.779
 20
-215.637
 30
0.0
 11
-282.351
 21
-215.637
 31
0.0
  0
LINE
  8
3
 62
3
 10
-282.351
 20
-215.637
 30
0.0
 11
-282.065
 21
-215.78
 31
0.0
  0
LINE
  8
3
 62
3
 10
-282.065
 20
-215.78
 30
0.0
 11
-281.779
 21
-216.065
 31
0.0
  0
LINE
  8
3
 62
3
 10
-284.494
 20
-216.065
 30
0.0
 11
-284.494
 21
-217.208
 31
0.0
  0
LINE
  8
3
 62
3
 10
-284.494
 20
-217.637
 30
0.0
 11
-284.494
 21
-217.208
 31
0.0
  0
LINE
  8
3
 62
3
 10
-284.494
 20
-217.208
 30
0.0
 11
-284.779
 21
-217.494
 31
0.0
  0
LINE
  8
3
 62
3
 10
-284.779
 20
-217.494
 30
0.0
 11
-285.065
 21
-217.637
 31
0.0
  0
LINE
  8
3
 62
3
 10
-285.065
 20
-217.637
 30
0.0
 11
-285.494
 21
-217.637
 31
0.0
  0
LINE
  8
3
 62
3
 10
-285.494
 20
-217.637
 30
0.0
 11
-285.779
 21
-217.494
 31
0.0
  0
LINE
  8
3
 62
3
 10
-285.779
 20
-217.494
 30
0.0
 11
-286.065
 21
-217.208
 31
0.0
  0
LINE
  8
3
 62
3
 10
-286.065
 20
-217.208
 30
0.0
 11
-286.208
 21
-216.78
 31
0.0
  0
LINE
  8
3
 62
3
 10
-286.208
 20
-216.78
 30
0.0
 11
-286.208
 21
-216.494
 31
0.0
  0
LINE
  8
3
 62
3
 10
-286.208
 20
-216.494
 30
0.0
 11
-286.065
 21
-216.065
 31
0.0
  0
LINE
  8
3
 62
3
 10
-286.065
 20
-216.065
 30
0.0
 11
-285.779
 21
-215.78
 31
0.0
  0
LINE
  8
3
 62
3
 10
-285.779
 20
-215.78
 30
0.0
 11
-285.494
 21
-215.637
 31
0.0
  0
LINE
  8
3
 62
3
 10
-285.494
 20
-215.637
 30
0.0
 11
-285.065
 21
-215.637
 31
0.0
  0
LINE
  8
3
 62
3
 10
-285.065
 20
-215.637
 30
0.0
 11
-284.779
 21
-215.78
 31
0.0
  0
LINE
  8
3
 62
3
 10
-284.779
 20
-215.78
 30
0.0
 11
-284.494
 21
-216.065
 31
0.0
  0
LINE
  8
3
 62
3
 10
-284.494
 20
-216.065
 30
0.0
 11
-284.494
 21
-215.637
 31
0.0
  0
LINE
  8
3
 62
3
 10
-287.351
 20
-214.637
 30
0.0
 11
-287.351
 21
-217.637
 31
0.0
  0
LINE
  8
3
 62
3
 10
-290.065
 20
-217.637
 30
0.0
 11
-290.065
 21
-217.208
 31
0.0
  0
LINE
  8
3
 62
3
 10
-290.065
 20
-217.208
 30
0.0
 11
-289.779
 21
-217.494
 31
0.0
  0
LINE
  8
3
 62
3
 10
-289.779
 20
-217.494
 30
0.0
 11
-289.494
 21
-217.637
 31
0.0
  0
LINE
  8
3
 62
3
 10
-289.494
 20
-217.637
 30
0.0
 11
-289.065
 21
-217.637
 31
0.0
  0
LINE
  8
3
 62
3
 10
-289.065
 20
-217.637
 30
0.0
 11
-288.779
 21
-217.494
 31
0.0
  0
LINE
  8
3
 62
3
 10
-288.779
 20
-217.494
 30
0.0
 11
-288.494
 21
-217.208
 31
0.0
  0
LINE
  8
3
 62
3
 10
-288.494
 20
-217.208
 30
0.0
 11
-288.351
 21
-216.78
 31
0.0
  0
LINE
  8
3
 62
3
 10
-288.351
 20
-216.78
 30
0.0
 11
-288.351
 21
-216.494
 31
0.0
  0
LINE
  8
3
 62
3
 10
-288.351
 20
-216.494
 30
0.0
 11
-288.494
 21
-216.065
 31
0.0
  0
LINE
  8
3
 62
3
 10
-288.494
 20
-216.065
 30
0.0
 11
-288.779
 21
-215.78
 31
0.0
  0
LINE
  8
3
 62
3
 10
-288.779
 20
-215.78
 30
0.0
 11
-289.065
 21
-215.637
 31
0.0
  0
LINE
  8
3
 62
3
 10
-289.065
 20
-215.637
 30
0.0
 11
-289.494
 21
-215.637
 31
0.0
  0
LINE
  8
3
 62
3
 10
-289.494
 20
-215.637
 30
0.0
 11
-289.779
 21
-215.78
 31
0.0
  0
LINE
  8
3
 62
3
 10
-289.779
 20
-215.78
 30
0.0
 11
-290.065
 21
-216.065
 31
0.0
  0
LINE
  8
3
 62
3
 10
-290.065
 20
-216.065
 30
0.0
 11
-290.065
 21
-214.637
 31
0.0
  0
LINE
  8
3
 62
3
 10
-290.065
 20
-216.065
 30
0.0
 11
-290.065
 21
-217.208
 31
0.0
  0
LINE
  8
3
 62
3
 10
-288.922
 20
-219.637
 30
0.0
 11
-289.351
 21
-219.637
 31
0.0
  0
LINE
  8
3
 62
3
 10
-289.351
 20
-219.637
 30
0.0
 11
-289.636
 21
-219.78
 31
0.0
  0
LINE
  8
3
 62
3
 10
-289.636
 20
-219.78
 30
0.0
 11
-289.922
 21
-220.065
 31
0.0
  0
LINE
  8
3
 62
3
 10
-289.922
 20
-220.065
 30
0.0
 11
-290.065
 21
-220.494
 31
0.0
  0
LINE
  8
3
 62
3
 10
-290.065
 20
-220.494
 30
0.0
 11
-290.065
 21
-219.637
 31
0.0
  0
LINE
  8
3
 62
3
 10
-290.065
 20
-220.494
 30
0.0
 11
-290.065
 21
-221.637
 31
0.0
  0
LINE
  8
3
 62
3
 10
-288.351
 20
-223.637
 30
0.0
 11
-288.351
 21
-225.922
 31
0.0
  0
LINE
  8
3
 62
3
 10
-288.351
 20
-225.922
 30
0.0
 11
-288.494
 21
-226.351
 31
0.0
  0
LINE
  8
3
 62
3
 10
-288.494
 20
-226.351
 30
0.0
 11
-288.636
 21
-226.494
 31
0.0
  0
LINE
  8
3
 62
3
 10
-288.636
 20
-226.494
 30
0.0
 11
-288.922
 21
-226.637
 31
0.0
  0
LINE
  8
3
 62
3
 10
-288.922
 20
-226.637
 30
0.0
 11
-289.351
 21
-226.637
 31
0.0
  0
LINE
  8
3
 62
3
 10
-289.351
 20
-226.637
 30
0.0
 11
-289.636
 21
-226.494
 31
0.0
  0
LINE
  8
3
 62
3
 10
-288.351
 20
-225.208
 30
0.0
 11
-288.636
 21
-225.494
 31
0.0
  0
LINE
  8
3
 62
3
 10
-288.636
 20
-225.494
 30
0.0
 11
-288.922
 21
-225.637
 31
0.0
  0
LINE
  8
3
 62
3
 10
-288.922
 20
-225.637
 30
0.0
 11
-289.351
 21
-225.637
 31
0.0
  0
LINE
  8
3
 62
3
 10
-289.351
 20
-225.637
 30
0.0
 11
-289.636
 21
-225.494
 31
0.0
  0
LINE
  8
3
 62
3
 10
-289.636
 20
-225.494
 30
0.0
 11
-289.922
 21
-225.208
 31
0.0
  0
LINE
  8
3
 62
3
 10
-289.922
 20
-225.208
 30
0.0
 11
-290.065
 21
-224.78
 31
0.0
  0
LINE
  8
3
 62
3
 10
-290.065
 20
-224.78
 30
0.0
 11
-290.065
 21
-224.494
 31
0.0
  0
LINE
  8
3
 62
3
 10
-290.065
 20
-224.494
 30
0.0
 11
-289.922
 21
-224.065
 31
0.0
  0
LINE
  8
3
 62
3
 10
-289.922
 20
-224.065
 30
0.0
 11
-289.636
 21
-223.78
 31
0.0
  0
LINE
  8
3
 62
3
 10
-289.636
 20
-223.78
 30
0.0
 11
-289.351
 21
-223.637
 31
0.0
  0
LINE
  8
3
 62
3
 10
-289.351
 20
-223.637
 30
0.0
 11
-288.922
 21
-223.637
 31
0.0
  0
LINE
  8
3
 62
3
 10
-288.922
 20
-223.637
 30
0.0
 11
-288.636
 21
-223.78
 31
0.0
  0
LINE
  8
3
 62
3
 10
-288.636
 20
-223.78
 30
0.0
 11
-288.351
 21
-224.065
 31
0.0
  0
LINE
  8
3
 62
3
 10
-288.208
 20
-220.494
 30
0.0
 11
-286.494
 21
-220.494
 31
0.0
  0
LINE
  8
3
 62
3
 10
-286.494
 20
-220.494
 30
0.0
 11
-286.494
 21
-220.208
 31
0.0
  0
LINE
  8
3
 62
3
 10
-286.494
 20
-220.208
 30
0.0
 11
-286.636
 21
-219.922
 31
0.0
  0
LINE
  8
3
 62
3
 10
-286.636
 20
-219.922
 30
0.0
 11
-286.779
 21
-219.78
 31
0.0
  0
LINE
  8
3
 62
3
 10
-286.779
 20
-219.78
 30
0.0
 11
-287.065
 21
-219.637
 31
0.0
  0
LINE
  8
3
 62
3
 10
-287.065
 20
-219.637
 30
0.0
 11
-287.494
 21
-219.637
 31
0.0
  0
LINE
  8
3
 62
3
 10
-287.494
 20
-219.637
 30
0.0
 11
-287.779
 21
-219.78
 31
0.0
  0
LINE
  8
3
 62
3
 10
-287.779
 20
-219.78
 30
0.0
 11
-288.065
 21
-220.065
 31
0.0
  0
LINE
  8
3
 62
3
 10
-288.065
 20
-220.065
 30
0.0
 11
-288.208
 21
-220.494
 31
0.0
  0
LINE
  8
3
 62
3
 10
-288.208
 20
-220.494
 30
0.0
 11
-288.208
 21
-220.78
 31
0.0
  0
LINE
  8
3
 62
3
 10
-288.208
 20
-220.78
 30
0.0
 11
-288.065
 21
-221.208
 31
0.0
  0
LINE
  8
3
 62
3
 10
-288.065
 20
-221.208
 30
0.0
 11
-287.779
 21
-221.494
 31
0.0
  0
LINE
  8
3
 62
3
 10
-287.779
 20
-221.494
 30
0.0
 11
-287.494
 21
-221.637
 31
0.0
  0
LINE
  8
3
 62
3
 10
-287.494
 20
-221.637
 30
0.0
 11
-287.065
 21
-221.637
 31
0.0
  0
LINE
  8
3
 62
3
 10
-287.065
 20
-221.637
 30
0.0
 11
-286.779
 21
-221.494
 31
0.0
  0
LINE
  8
3
 62
3
 10
-286.779
 20
-221.494
 30
0.0
 11
-286.494
 21
-221.208
 31
0.0
  0
LINE
  8
3
 62
3
 10
-286.208
 20
-223.637
 30
0.0
 11
-286.636
 21
-223.637
 31
0.0
  0
LINE
  8
3
 62
3
 10
-286.636
 20
-223.637
 30
0.0
 11
-286.922
 21
-223.78
 31
0.0
  0
LINE
  8
3
 62
3
 10
-286.922
 20
-223.78
 30
0.0
 11
-287.208
 21
-224.065
 31
0.0
  0
LINE
  8
3
 62
3
 10
-287.208
 20
-224.065
 30
0.0
 11
-287.351
 21
-224.494
 31
0.0
  0
LINE
  8
3
 62
3
 10
-287.351
 20
-224.494
 30
0.0
 11
-287.351
 21
-223.637
 31
0.0
  0
LINE
  8
3
 62
3
 10
-287.351
 20
-224.494
 30
0.0
 11
-287.351
 21
-225.637
 31
0.0
  0
LINE
  8
3
 62
3
 10
-285.494
 20
-224.494
 30
0.0
 11
-283.779
 21
-224.494
 31
0.0
  0
LINE
  8
3
 62
3
 10
-283.779
 20
-224.494
 30
0.0
 11
-283.779
 21
-224.208
 31
0.0
  0
LINE
  8
3
 62
3
 10
-283.779
 20
-224.208
 30
0.0
 11
-283.922
 21
-223.922
 31
0.0
  0
LINE
  8
3
 62
3
 10
-283.922
 20
-223.922
 30
0.0
 11
-284.065
 21
-223.78
 31
0.0
  0
LINE
  8
3
 62
3
 10
-284.065
 20
-223.78
 30
0.0
 11
-284.351
 21
-223.637
 31
0.0
  0
LINE
  8
3
 62
3
 10
-284.351
 20
-223.637
 30
0.0
 11
-284.779
 21
-223.637
 31
0.0
  0
LINE
  8
3
 62
3
 10
-284.779
 20
-223.637
 30
0.0
 11
-285.065
 21
-223.78
 31
0.0
  0
LINE
  8
3
 62
3
 10
-285.065
 20
-223.78
 30
0.0
 11
-285.351
 21
-224.065
 31
0.0
  0
LINE
  8
3
 62
3
 10
-285.351
 20
-224.065
 30
0.0
 11
-285.494
 21
-224.494
 31
0.0
  0
LINE
  8
3
 62
3
 10
-285.494
 20
-224.494
 30
0.0
 11
-285.494
 21
-224.78
 31
0.0
  0
LINE
  8
3
 62
3
 10
-285.494
 20
-224.78
 30
0.0
 11
-285.351
 21
-225.208
 31
0.0
  0
LINE
  8
3
 62
3
 10
-285.351
 20
-225.208
 30
0.0
 11
-285.065
 21
-225.494
 31
0.0
  0
LINE
  8
3
 62
3
 10
-285.065
 20
-225.494
 30
0.0
 11
-284.779
 21
-225.637
 31
0.0
  0
LINE
  8
3
 62
3
 10
-284.779
 20
-225.637
 30
0.0
 11
-284.351
 21
-225.637
 31
0.0
  0
LINE
  8
3
 62
3
 10
-284.351
 20
-225.637
 30
0.0
 11
-284.065
 21
-225.494
 31
0.0
  0
LINE
  8
3
 62
3
 10
-284.065
 20
-225.494
 30
0.0
 11
-283.779
 21
-225.208
 31
0.0
  0
LINE
  8
3
 62
3
 10
-282.922
 20
-224.494
 30
0.0
 11
-281.208
 21
-224.494
 31
0.0
  0
LINE
  8
3
 62
3
 10
-281.208
 20
-224.494
 30
0.0
 11
-281.208
 21
-224.208
 31
0.0
  0
LINE
  8
3
 62
3
 10
-281.208
 20
-224.208
 30
0.0
 11
-281.351
 21
-223.922
 31
0.0
  0
LINE
  8
3
 62
3
 10
-281.351
 20
-223.922
 30
0.0
 11
-281.494
 21
-223.78
 31
0.0
  0
LINE
  8
3
 62
3
 10
-281.494
 20
-223.78
 30
0.0
 11
-281.779
 21
-223.637
 31
0.0
  0
LINE
  8
3
 62
3
 10
-281.779
 20
-223.637
 30
0.0
 11
-282.208
 21
-223.637
 31
0.0
  0
LINE
  8
3
 62
3
 10
-282.208
 20
-223.637
 30
0.0
 11
-282.494
 21
-223.78
 31
0.0
  0
LINE
  8
3
 62
3
 10
-282.494
 20
-223.78
 30
0.0
 11
-282.779
 21
-224.065
 31
0.0
  0
LINE
  8
3
 62
3
 10
-282.779
 20
-224.065
 30
0.0
 11
-282.922
 21
-224.494
 31
0.0
  0
LINE
  8
3
 62
3
 10
-282.922
 20
-224.494
 30
0.0
 11
-282.922
 21
-224.78
 31
0.0
  0
LINE
  8
3
 62
3
 10
-282.922
 20
-224.78
 30
0.0
 11
-282.779
 21
-225.208
 31
0.0
  0
LINE
  8
3
 62
3
 10
-282.779
 20
-225.208
 30
0.0
 11
-282.494
 21
-225.494
 31
0.0
  0
LINE
  8
3
 62
3
 10
-282.494
 20
-225.494
 30
0.0
 11
-282.208
 21
-225.637
 31
0.0
  0
LINE
  8
3
 62
3
 10
-282.208
 20
-225.637
 30
0.0
 11
-281.779
 21
-225.637
 31
0.0
  0
LINE
  8
3
 62
3
 10
-281.779
 20
-225.637
 30
0.0
 11
-281.494
 21
-225.494
 31
0.0
  0
LINE
  8
3
 62
3
 10
-281.494
 20
-225.494
 30
0.0
 11
-281.208
 21
-225.208
 31
0.0
  0
LINE
  8
3
 62
3
 10
-280.351
 20
-225.637
 30
0.0
 11
-280.351
 21
-224.208
 31
0.0
  0
LINE
  8
3
 62
3
 10
-278.779
 20
-225.637
 30
0.0
 11
-278.779
 21
-224.208
 31
0.0
  0
LINE
  8
3
 62
3
 10
-278.779
 20
-224.208
 30
0.0
 11
-278.922
 21
-223.78
 31
0.0
  0
LINE
  8
3
 62
3
 10
-278.922
 20
-223.78
 30
0.0
 11
-279.208
 21
-223.637
 31
0.0
  0
LINE
  8
3
 62
3
 10
-279.208
 20
-223.637
 30
0.0
 11
-279.636
 21
-223.637
 31
0.0
  0
LINE
  8
3
 62
3
 10
-279.636
 20
-223.637
 30
0.0
 11
-279.922
 21
-223.78
 31
0.0
  0
LINE
  8
3
 62
3
 10
-279.922
 20
-223.78
 30
0.0
 11
-280.351
 21
-224.208
 31
0.0
  0
LINE
  8
3
 62
3
 10
-280.351
 20
-224.208
 30
0.0
 11
-280.351
 21
-223.637
 31
0.0
  0
LINE
  8
3
 62
3
 10
-283.922
 20
-221.637
 30
0.0
 11
-283.922
 21
-221.208
 31
0.0
  0
LINE
  8
3
 62
3
 10
-283.922
 20
-221.208
 30
0.0
 11
-284.208
 21
-221.494
 31
0.0
  0
LINE
  8
3
 62
3
 10
-284.208
 20
-221.494
 30
0.0
 11
-284.494
 21
-221.637
 31
0.0
  0
LINE
  8
3
 62
3
 10
-284.494
 20
-221.637
 30
0.0
 11
-284.922
 21
-221.637
 31
0.0
  0
LINE
  8
3
 62
3
 10
-284.922
 20
-221.637
 30
0.0
 11
-285.208
 21
-221.494
 31
0.0
  0
LINE
  8
3
 62
3
 10
-285.208
 20
-221.494
 30
0.0
 11
-285.494
 21
-221.208
 31
0.0
  0
LINE
  8
3
 62
3
 10
-285.494
 20
-221.208
 30
0.0
 11
-285.636
 21
-220.78
 31
0.0
  0
LINE
  8
3
 62
3
 10
-285.636
 20
-220.78
 30
0.0
 11
-285.636
 21
-220.494
 31
0.0
  0
LINE
  8
3
 62
3
 10
-285.636
 20
-220.494
 30
0.0
 11
-285.494
 21
-220.065
 31
0.0
  0
LINE
  8
3
 62
3
 10
-285.494
 20
-220.065
 30
0.0
 11
-285.208
 21
-219.78
 31
0.0
  0
LINE
  8
3
 62
3
 10
-285.208
 20
-219.78
 30
0.0
 11
-284.922
 21
-219.637
 31
0.0
  0
LINE
  8
3
 62
3
 10
-284.922
 20
-219.637
 30
0.0
 11
-284.494
 21
-219.637
 31
0.0
  0
LINE
  8
3
 62
3
 10
-284.494
 20
-219.637
 30
0.0
 11
-284.208
 21
-219.78
 31
0.0
  0
LINE
  8
3
 62
3
 10
-284.208
 20
-219.78
 30
0.0
 11
-283.922
 21
-220.065
 31
0.0
  0
LINE
  8
3
 62
3
 10
-283.922
 20
-220.065
 30
0.0
 11
-283.922
 21
-218.637
 31
0.0
  0
LINE
  8
3
 62
3
 10
-283.922
 20
-220.065
 30
0.0
 11
-283.922
 21
-221.208
 31
0.0
  0
LINE
  8
3
 62
3
 10
-279.351
 20
-217.637
 30
0.0
 11
-280.351
 21
-216.494
 31
0.0
  0
LINE
  8
3
 62
3
 10
-273.494
 20
-208.065
 30
0.0
 11
-273.494
 21
-206.637
 31
0.0
  0
LINE
  8
3
 62
3
 10
-273.494
 20
-206.637
 30
0.0
 11
-272.208
 21
-206.637
 31
0.0
  0
LINE
  8
3
 62
3
 10
-272.208
 20
-206.637
 30
0.0
 11
-271.779
 21
-206.78
 31
0.0
  0
LINE
  8
3
 62
3
 10
-271.779
 20
-206.78
 30
0.0
 11
-271.636
 21
-206.922
 31
0.0
  0
LINE
  8
3
 62
3
 10
-271.636
 20
-206.922
 30
0.0
 11
-271.494
 21
-207.208
 31
0.0
  0
LINE
  8
3
 62
3
 10
-271.494
 20
-207.208
 30
0.0
 11
-271.494
 21
-207.494
 31
0.0
  0
LINE
  8
3
 62
3
 10
-271.494
 20
-207.494
 30
0.0
 11
-271.636
 21
-207.78
 31
0.0
  0
LINE
  8
3
 62
3
 10
-271.636
 20
-207.78
 30
0.0
 11
-271.779
 21
-207.922
 31
0.0
  0
LINE
  8
3
 62
3
 10
-271.779
 20
-207.922
 30
0.0
 11
-272.208
 21
-208.065
 31
0.0
  0
LINE
  8
3
 62
3
 10
-272.208
 20
-208.065
 30
0.0
 11
-271.779
 21
-208.208
 31
0.0
  0
LINE
  8
3
 62
3
 10
-271.779
 20
-208.208
 30
0.0
 11
-271.636
 21
-208.351
 31
0.0
  0
LINE
  8
3
 62
3
 10
-271.636
 20
-208.351
 30
0.0
 11
-271.494
 21
-208.637
 31
0.0
  0
LINE
  8
3
 62
3
 10
-271.494
 20
-208.637
 30
0.0
 11
-271.494
 21
-209.065
 31
0.0
  0
LINE
  8
3
 62
3
 10
-271.494
 20
-209.065
 30
0.0
 11
-271.636
 21
-209.351
 31
0.0
  0
LINE
  8
3
 62
3
 10
-271.636
 20
-209.351
 30
0.0
 11
-271.779
 21
-209.494
 31
0.0
  0
LINE
  8
3
 62
3
 10
-271.779
 20
-209.494
 30
0.0
 11
-272.208
 21
-209.637
 31
0.0
  0
LINE
  8
3
 62
3
 10
-272.208
 20
-209.637
 30
0.0
 11
-273.494
 21
-209.637
 31
0.0
  0
LINE
  8
3
 62
3
 10
-273.494
 20
-209.637
 30
0.0
 11
-273.494
 21
-209.208
 31
0.0
  0
LINE
  8
3
 62
3
 10
-273.494
 20
-209.208
 30
0.0
 11
-273.494
 21
-208.065
 31
0.0
  0
LINE
  8
3
 62
3
 10
-273.494
 20
-208.065
 30
0.0
 11
-272.208
 21
-208.065
 31
0.0
  0
LINE
  8
3
 62
3
 10
-270.494
 20
-207.637
 30
0.0
 11
-270.494
 21
-208.494
 31
0.0
  0
LINE
  8
3
 62
3
 10
-270.494
 20
-208.494
 30
0.0
 11
-270.351
 21
-208.065
 31
0.0
  0
LINE
  8
3
 62
3
 10
-270.351
 20
-208.065
 30
0.0
 11
-270.065
 21
-207.78
 31
0.0
  0
LINE
  8
3
 62
3
 10
-270.065
 20
-207.78
 30
0.0
 11
-269.779
 21
-207.637
 31
0.0
  0
LINE
  8
3
 62
3
 10
-269.779
 20
-207.637
 30
0.0
 11
-269.351
 21
-207.637
 31
0.0
  0
LINE
  8
3
 62
3
 10
-270.494
 20
-208.494
 30
0.0
 11
-270.494
 21
-209.637
 31
0.0
  0
LINE
  8
3
 62
3
 10
-268.494
 20
-208.065
 30
0.0
 11
-268.208
 21
-207.78
 31
0.0
  0
LINE
  8
3
 62
3
 10
-268.208
 20
-207.78
 30
0.0
 11
-267.922
 21
-207.637
 31
0.0
  0
LINE
  8
3
 62
3
 10
-267.922
 20
-207.637
 30
0.0
 11
-267.636
 21
-207.637
 31
0.0
  0
LINE
  8
3
 62
3
 10
-267.636
 20
-207.637
 30
0.0
 11
-267.494
 21
-207.637
 31
0.0
  0
LINE
  8
3
 62
3
 10
-267.494
 20
-207.637
 30
0.0
 11
-267.208
 21
-207.78
 31
0.0
  0
LINE
  8
3
 62
3
 10
-267.208
 20
-207.78
 30
0.0
 11
-266.922
 21
-208.065
 31
0.0
  0
LINE
  8
3
 62
3
 10
-266.922
 20
-208.065
 30
0.0
 11
-266.779
 21
-208.494
 31
0.0
  0
LINE
  8
3
 62
3
 10
-266.779
 20
-208.494
 30
0.0
 11
-266.779
 21
-208.78
 31
0.0
  0
LINE
  8
3
 62
3
 10
-266.779
 20
-208.78
 30
0.0
 11
-266.922
 21
-209.208
 31
0.0
  0
LINE
  8
3
 62
3
 10
-266.922
 20
-209.208
 30
0.0
 11
-267.208
 21
-209.494
 31
0.0
  0
LINE
  8
3
 62
3
 10
-267.208
 20
-209.494
 30
0.0
 11
-267.494
 21
-209.637
 31
0.0
  0
LINE
  8
3
 62
3
 10
-267.494
 20
-209.637
 30
0.0
 11
-267.922
 21
-209.637
 31
0.0
  0
LINE
  8
3
 62
3
 10
-267.922
 20
-209.637
 30
0.0
 11
-268.208
 21
-209.494
 31
0.0
  0
LINE
  8
3
 62
3
 10
-268.208
 20
-209.494
 30
0.0
 11
-268.494
 21
-209.208
 31
0.0
  0
LINE
  8
3
 62
3
 10
-268.494
 20
-209.208
 30
0.0
 11
-268.636
 21
-208.78
 31
0.0
  0
LINE
  8
3
 62
3
 10
-268.636
 20
-208.78
 30
0.0
 11
-268.636
 21
-208.494
 31
0.0
  0
LINE
  8
3
 62
3
 10
-268.636
 20
-208.494
 30
0.0
 11
-268.494
 21
-208.065
 31
0.0
  0
LINE
  8
3
 62
3
 10
-268.636
 20
-205.637
 30
0.0
 11
-268.636
 21
-203.637
 31
0.0
  0
LINE
  8
3
 62
3
 10
-268.636
 20
-202.922
 30
0.0
 11
-268.779
 21
-202.78
 31
0.0
  0
LINE
  8
3
 62
3
 10
-268.779
 20
-202.78
 30
0.0
 11
-268.636
 21
-202.637
 31
0.0
  0
LINE
  8
3
 62
3
 10
-268.636
 20
-202.637
 30
0.0
 11
-268.494
 21
-202.78
 31
0.0
  0
LINE
  8
3
 62
3
 10
-268.494
 20
-202.78
 30
0.0
 11
-268.636
 21
-202.922
 31
0.0
  0
LINE
  8
3
 62
3
 10
-267.636
 20
-202.637
 30
0.0
 11
-267.636
 21
-205.065
 31
0.0
  0
LINE
  8
3
 62
3
 10
-267.636
 20
-205.065
 30
0.0
 11
-266.208
 21
-203.637
 31
0.0
  0
LINE
  8
3
 62
3
 10
-267.636
 20
-205.065
 30
0.0
 11
-267.636
 21
-205.637
 31
0.0
  0
LINE
  8
3
 62
3
 10
-267.065
 20
-204.494
 30
0.0
 11
-266.065
 21
-205.637
 31
0.0
  0
LINE
  8
3
 62
3
 10
-265.208
 20
-204.494
 30
0.0
 11
-263.494
 21
-204.494
 31
0.0
  0
LINE
  8
3
 62
3
 10
-263.494
 20
-204.494
 30
0.0
 11
-263.494
 21
-204.208
 31
0.0
  0
LINE
  8
3
 62
3
 10
-263.494
 20
-204.208
 30
0.0
 11
-263.636
 21
-203.922
 31
0.0
  0
LINE
  8
3
 62
3
 10
-263.636
 20
-203.922
 30
0.0
 11
-263.779
 21
-203.78
 31
0.0
  0
LINE
  8
3
 62
3
 10
-263.779
 20
-203.78
 30
0.0
 11
-264.065
 21
-203.637
 31
0.0
  0
LINE
  8
3
 62
3
 10
-264.065
 20
-203.637
 30
0.0
 11
-264.494
 21
-203.637
 31
0.0
  0
LINE
  8
3
 62
3
 10
-264.494
 20
-203.637
 30
0.0
 11
-264.779
 21
-203.78
 31
0.0
  0
LINE
  8
3
 62
3
 10
-264.779
 20
-203.78
 30
0.0
 11
-265.065
 21
-204.065
 31
0.0
  0
LINE
  8
3
 62
3
 10
-265.065
 20
-204.065
 30
0.0
 11
-265.208
 21
-204.494
 31
0.0
  0
LINE
  8
3
 62
3
 10
-265.208
 20
-204.494
 30
0.0
 11
-265.208
 21
-204.78
 31
0.0
  0
LINE
  8
3
 62
3
 10
-265.208
 20
-204.78
 30
0.0
 11
-265.065
 21
-205.208
 31
0.0
  0
LINE
  8
3
 62
3
 10
-265.065
 20
-205.208
 30
0.0
 11
-264.779
 21
-205.494
 31
0.0
  0
LINE
  8
3
 62
3
 10
-264.779
 20
-205.494
 30
0.0
 11
-264.494
 21
-205.637
 31
0.0
  0
LINE
  8
3
 62
3
 10
-264.494
 20
-205.637
 30
0.0
 11
-264.065
 21
-205.637
 31
0.0
  0
LINE
  8
3
 62
3
 10
-264.065
 20
-205.637
 30
0.0
 11
-263.779
 21
-205.494
 31
0.0
  0
LINE
  8
3
 62
3
 10
-263.779
 20
-205.494
 30
0.0
 11
-263.494
 21
-205.208
 31
0.0
  0
LINE
  8
3
 62
3
 10
-260.636
 20
-207.637
 30
0.0
 11
-260.636
 21
-208.494
 31
0.0
  0
LINE
  8
3
 62
3
 10
-260.636
 20
-208.494
 30
0.0
 11
-260.494
 21
-208.065
 31
0.0
  0
LINE
  8
3
 62
3
 10
-260.494
 20
-208.065
 30
0.0
 11
-260.208
 21
-207.78
 31
0.0
  0
LINE
  8
3
 62
3
 10
-260.208
 20
-207.78
 30
0.0
 11
-259.922
 21
-207.637
 31
0.0
  0
LINE
  8
3
 62
3
 10
-259.922
 20
-207.637
 30
0.0
 11
-259.494
 21
-207.637
 31
0.0
  0
LINE
  8
3
 62
3
 10
-260.636
 20
-208.494
 30
0.0
 11
-260.636
 21
-209.637
 31
0.0
  0
LINE
  8
3
 62
3
 10
-261.494
 20
-209.208
 30
0.0
 11
-261.779
 21
-209.494
 31
0.0
  0
LINE
  8
3
 62
3
 10
-261.779
 20
-209.494
 30
0.0
 11
-262.065
 21
-209.637
 31
0.0
  0
LINE
  8
3
 62
3
 10
-262.065
 20
-209.637
 30
0.0
 11
-262.494
 21
-209.637
 31
0.0
  0
LINE
  8
3
 62
3
 10
-262.494
 20
-209.637
 30
0.0
 11
-262.779
 21
-209.494
 31
0.0
  0
LINE
  8
3
 62
3
 10
-262.779
 20
-209.494
 30
0.0
 11
-263.065
 21
-209.208
 31
0.0
  0
LINE
  8
3
 62
3
 10
-263.065
 20
-209.208
 30
0.0
 11
-263.208
 21
-208.78
 31
0.0
  0
LINE
  8
3
 62
3
 10
-263.208
 20
-208.78
 30
0.0
 11
-263.208
 21
-208.494
 31
0.0
  0
LINE
  8
3
 62
3
 10
-263.208
 20
-208.494
 30
0.0
 11
-263.065
 21
-208.065
 31
0.0
  0
LINE
  8
3
 62
3
 10
-263.065
 20
-208.065
 30
0.0
 11
-262.779
 21
-207.78
 31
0.0
  0
LINE
  8
3
 62
3
 10
-262.779
 20
-207.78
 30
0.0
 11
-262.494
 21
-207.637
 31
0.0
  0
LINE
  8
3
 62
3
 10
-262.494
 20
-207.637
 30
0.0
 11
-262.065
 21
-207.637
 31
0.0
  0
LINE
  8
3
 62
3
 10
-262.065
 20
-207.637
 30
0.0
 11
-261.779
 21
-207.78
 31
0.0
  0
LINE
  8
3
 62
3
 10
-261.779
 20
-207.78
 30
0.0
 11
-261.636
 21
-207.922
 31
0.0
  0
LINE
  8
3
 62
3
 10
-261.636
 20
-207.922
 30
0.0
 11
-261.494
 21
-208.208
 31
0.0
  0
LINE
  8
3
 62
3
 10
-261.494
 20
-208.208
 30
0.0
 11
-261.494
 21
-208.494
 31
0.0
  0
LINE
  8
3
 62
3
 10
-261.494
 20
-208.494
 30
0.0
 11
-263.208
 21
-208.494
 31
0.0
  0
LINE
  8
3
 62
3
 10
-264.208
 20
-208.065
 30
0.0
 11
-264.208
 21
-209.208
 31
0.0
  0
LINE
  8
3
 62
3
 10
-264.208
 20
-209.637
 30
0.0
 11
-264.208
 21
-209.208
 31
0.0
  0
LINE
  8
3
 62
3
 10
-264.208
 20
-209.208
 30
0.0
 11
-264.494
 21
-209.494
 31
0.0
  0
LINE
  8
3
 62
3
 10
-264.494
 20
-209.494
 30
0.0
 11
-264.779
 21
-209.637
 31
0.0
  0
LINE
  8
3
 62
3
 10
-264.779
 20
-209.637
 30
0.0
 11
-265.208
 21
-209.637
 31
0.0
  0
LINE
  8
3
 62
3
 10
-265.208
 20
-209.637
 30
0.0
 11
-265.494
 21
-209.494
 31
0.0
  0
LINE
  8
3
 62
3
 10
-265.494
 20
-209.494
 30
0.0
 11
-265.779
 21
-209.208
 31
0.0
  0
LINE
  8
3
 62
3
 10
-265.779
 20
-209.208
 30
0.0
 11
-265.922
 21
-208.78
 31
0.0
  0
LINE
  8
3
 62
3
 10
-265.922
 20
-208.78
 30
0.0
 11
-265.922
 21
-208.494
 31
0.0
  0
LINE
  8
3
 62
3
 10
-265.922
 20
-208.494
 30
0.0
 11
-265.779
 21
-208.065
 31
0.0
  0
LINE
  8
3
 62
3
 10
-265.779
 20
-208.065
 30
0.0
 11
-265.494
 21
-207.78
 31
0.0
  0
LINE
  8
3
 62
3
 10
-265.494
 20
-207.78
 30
0.0
 11
-265.208
 21
-207.637
 31
0.0
  0
LINE
  8
3
 62
3
 10
-265.208
 20
-207.637
 30
0.0
 11
-264.779
 21
-207.637
 31
0.0
  0
LINE
  8
3
 62
3
 10
-264.779
 20
-207.637
 30
0.0
 11
-264.494
 21
-207.78
 31
0.0
  0
LINE
  8
3
 62
3
 10
-264.494
 20
-207.78
 30
0.0
 11
-264.208
 21
-208.065
 31
0.0
  0
LINE
  8
3
 62
3
 10
-264.208
 20
-208.065
 30
0.0
 11
-264.208
 21
-206.637
 31
0.0
  0
LINE
  8
3
 62
3
 10
-258.208
 20
-205.637
 30
0.0
 11
-258.208
 21
-205.208
 31
0.0
  0
LINE
  8
3
 62
3
 10
-258.208
 20
-205.208
 30
0.0
 11
-258.494
 21
-205.494
 31
0.0
  0
LINE
  8
3
 62
3
 10
-258.494
 20
-205.494
 30
0.0
 11
-258.779
 21
-205.637
 31
0.0
  0
LINE
  8
3
 62
3
 10
-258.779
 20
-205.637
 30
0.0
 11
-259.208
 21
-205.637
 31
0.0
  0
LINE
  8
3
 62
3
 10
-259.208
 20
-205.637
 30
0.0
 11
-259.494
 21
-205.494
 31
0.0
  0
LINE
  8
3
 62
3
 10
-259.494
 20
-205.494
 30
0.0
 11
-259.779
 21
-205.208
 31
0.0
  0
LINE
  8
3
 62
3
 10
-259.779
 20
-205.208
 30
0.0
 11
-259.922
 21
-204.78
 31
0.0
  0
LINE
  8
3
 62
3
 10
-259.922
 20
-204.78
 30
0.0
 11
-259.922
 21
-204.494
 31
0.0
  0
LINE
  8
3
 62
3
 10
-259.922
 20
-204.494
 30
0.0
 11
-259.779
 21
-204.065
 31
0.0
  0
LINE
  8
3
 62
3
 10
-259.779
 20
-204.065
 30
0.0
 11
-259.494
 21
-203.78
 31
0.0
  0
LINE
  8
3
 62
3
 10
-259.494
 20
-203.78
 30
0.0
 11
-259.208
 21
-203.637
 31
0.0
  0
LINE
  8
3
 62
3
 10
-259.208
 20
-203.637
 30
0.0
 11
-258.779
 21
-203.637
 31
0.0
  0
LINE
  8
3
 62
3
 10
-258.779
 20
-203.637
 30
0.0
 11
-258.494
 21
-203.78
 31
0.0
  0
LINE
  8
3
 62
3
 10
-258.494
 20
-203.78
 30
0.0
 11
-258.208
 21
-204.065
 31
0.0
  0
LINE
  8
3
 62
3
 10
-258.208
 20
-204.065
 30
0.0
 11
-258.208
 21
-203.637
 31
0.0
  0
LINE
  8
3
 62
3
 10
-258.208
 20
-204.065
 30
0.0
 11
-258.208
 21
-205.208
 31
0.0
  0
LINE
  8
3
 62
3
 10
-258.779
 20
-209.208
 30
0.0
 11
-258.636
 21
-209.494
 31
0.0
  0
LINE
  8
3
 62
3
 10
-258.636
 20
-209.494
 30
0.0
 11
-258.208
 21
-209.637
 31
0.0
  0
LINE
  8
3
 62
3
 10
-258.208
 20
-209.637
 30
0.0
 11
-257.779
 21
-209.637
 31
0.0
  0
LINE
  8
3
 62
3
 10
-257.779
 20
-209.637
 30
0.0
 11
-257.351
 21
-209.494
 31
0.0
  0
LINE
  8
3
 62
3
 10
-257.351
 20
-209.494
 30
0.0
 11
-257.208
 21
-209.208
 31
0.0
  0
LINE
  8
3
 62
3
 10
-257.208
 20
-209.208
 30
0.0
 11
-257.208
 21
-209.065
 31
0.0
  0
LINE
  8
3
 62
3
 10
-257.208
 20
-209.065
 30
0.0
 11
-257.351
 21
-208.78
 31
0.0
  0
LINE
  8
3
 62
3
 10
-257.351
 20
-208.78
 30
0.0
 11
-257.636
 21
-208.637
 31
0.0
  0
LINE
  8
3
 62
3
 10
-257.636
 20
-208.637
 30
0.0
 11
-258.351
 21
-208.494
 31
0.0
  0
LINE
  8
3
 62
3
 10
-258.351
 20
-208.494
 30
0.0
 11
-258.636
 21
-208.351
 31
0.0
  0
LINE
  8
3
 62
3
 10
-258.636
 20
-208.351
 30
0.0
 11
-258.779
 21
-208.065
 31
0.0
  0
LINE
  8
3
 62
3
 10
-258.779
 20
-208.065
 30
0.0
 11
-258.636
 21
-207.78
 31
0.0
  0
LINE
  8
3
 62
3
 10
-258.636
 20
-207.78
 30
0.0
 11
-258.208
 21
-207.637
 31
0.0
  0
LINE
  8
3
 62
3
 10
-258.208
 20
-207.637
 30
0.0
 11
-257.779
 21
-207.637
 31
0.0
  0
LINE
  8
3
 62
3
 10
-257.779
 20
-207.637
 30
0.0
 11
-257.351
 21
-207.78
 31
0.0
  0
LINE
  8
3
 62
3
 10
-257.351
 20
-207.78
 30
0.0
 11
-257.208
 21
-208.065
 31
0.0
  0
LINE
  8
3
 62
3
 10
-256.351
 20
-208.494
 30
0.0
 11
-256.208
 21
-208.065
 31
0.0
  0
LINE
  8
3
 62
3
 10
-256.208
 20
-208.065
 30
0.0
 11
-255.922
 21
-207.78
 31
0.0
  0
LINE
  8
3
 62
3
 10
-255.922
 20
-207.78
 30
0.0
 11
-255.636
 21
-207.637
 31
0.0
  0
LINE
  8
3
 62
3
 10
-255.636
 20
-207.637
 30
0.0
 11
-255.208
 21
-207.637
 31
0.0
  0
LINE
  8
3
 62
3
 10
-255.208
 20
-207.637
 30
0.0
 11
-254.922
 21
-207.78
 31
0.0
  0
LINE
  8
3
 62
3
 10
-254.922
 20
-207.78
 30
0.0
 11
-254.779
 21
-207.922
 31
0.0
  0
LINE
  8
3
 62
3
 10
-254.779
 20
-207.922
 30
0.0
 11
-254.636
 21
-208.208
 31
0.0
  0
LINE
  8
3
 62
3
 10
-254.636
 20
-208.208
 30
0.0
 11
-254.636
 21
-208.494
 31
0.0
  0
LINE
  8
3
 62
3
 10
-254.636
 20
-208.494
 30
0.0
 11
-256.351
 21
-208.494
 31
0.0
  0
LINE
  8
3
 62
3
 10
-256.351
 20
-208.494
 30
0.0
 11
-256.351
 21
-208.78
 31
0.0
  0
LINE
  8
3
 62
3
 10
-256.351
 20
-208.78
 30
0.0
 11
-256.208
 21
-209.208
 31
0.0
  0
LINE
  8
3
 62
3
 10
-256.208
 20
-209.208
 30
0.0
 11
-255.922
 21
-209.494
 31
0.0
  0
LINE
  8
3
 62
3
 10
-255.922
 20
-209.494
 30
0.0
 11
-255.636
 21
-209.637
 31
0.0
  0
LINE
  8
3
 62
3
 10
-255.636
 20
-209.637
 30
0.0
 11
-255.208
 21
-209.637
 31
0.0
  0
LINE
  8
3
 62
3
 10
-255.208
 20
-209.637
 30
0.0
 11
-254.922
 21
-209.494
 31
0.0
  0
LINE
  8
3
 62
3
 10
-254.922
 20
-209.494
 30
0.0
 11
-254.636
 21
-209.208
 31
0.0
  0
LINE
  8
3
 62
3
 10
-253.779
 20
-209.637
 30
0.0
 11
-253.779
 21
-208.208
 31
0.0
  0
LINE
  8
3
 62
3
 10
-252.208
 20
-209.637
 30
0.0
 11
-252.208
 21
-208.208
 31
0.0
  0
LINE
  8
3
 62
3
 10
-252.208
 20
-208.208
 30
0.0
 11
-252.351
 21
-207.78
 31
0.0
  0
LINE
  8
3
 62
3
 10
-252.351
 20
-207.78
 30
0.0
 11
-252.636
 21
-207.637
 31
0.0
  0
LINE
  8
3
 62
3
 10
-252.636
 20
-207.637
 30
0.0
 11
-253.065
 21
-207.637
 31
0.0
  0
LINE
  8
3
 62
3
 10
-253.065
 20
-207.637
 30
0.0
 11
-253.351
 21
-207.78
 31
0.0
  0
LINE
  8
3
 62
3
 10
-253.351
 20
-207.78
 30
0.0
 11
-253.779
 21
-208.208
 31
0.0
  0
LINE
  8
3
 62
3
 10
-253.779
 20
-208.208
 30
0.0
 11
-253.779
 21
-207.637
 31
0.0
  0
LINE
  8
3
 62
3
 10
-254.494
 20
-206.637
 30
0.0
 11
-254.494
 21
-205.208
 31
0.0
  0
LINE
  8
3
 62
3
 10
-254.494
 20
-205.208
 30
0.0
 11
-254.494
 21
-204.065
 31
0.0
  0
LINE
  8
3
 62
3
 10
-254.494
 20
-204.065
 30
0.0
 11
-254.494
 21
-203.637
 31
0.0
  0
LINE
  8
3
 62
3
 10
-254.494
 20
-204.065
 30
0.0
 11
-254.208
 21
-203.78
 31
0.0
  0
LINE
  8
3
 62
3
 10
-254.208
 20
-203.78
 30
0.0
 11
-253.922
 21
-203.637
 31
0.0
  0
LINE
  8
3
 62
3
 10
-253.922
 20
-203.637
 30
0.0
 11
-253.494
 21
-203.637
 31
0.0
  0
LINE
  8
3
 62
3
 10
-253.494
 20
-203.637
 30
0.0
 11
-253.208
 21
-203.78
 31
0.0
  0
LINE
  8
3
 62
3
 10
-253.208
 20
-203.78
 30
0.0
 11
-252.922
 21
-204.065
 31
0.0
  0
LINE
  8
3
 62
3
 10
-252.922
 20
-204.065
 30
0.0
 11
-252.779
 21
-204.494
 31
0.0
  0
LINE
  8
3
 62
3
 10
-252.779
 20
-204.494
 30
0.0
 11
-252.779
 21
-204.78
 31
0.0
  0
LINE
  8
3
 62
3
 10
-252.779
 20
-204.78
 30
0.0
 11
-252.922
 21
-205.208
 31
0.0
  0
LINE
  8
3
 62
3
 10
-252.922
 20
-205.208
 30
0.0
 11
-253.208
 21
-205.494
 31
0.0
  0
LINE
  8
3
 62
3
 10
-253.208
 20
-205.494
 30
0.0
 11
-253.494
 21
-205.637
 31
0.0
  0
LINE
  8
3
 62
3
 10
-253.494
 20
-205.637
 30
0.0
 11
-253.922
 21
-205.637
 31
0.0
  0
LINE
  8
3
 62
3
 10
-253.922
 20
-205.637
 30
0.0
 11
-254.208
 21
-205.494
 31
0.0
  0
LINE
  8
3
 62
3
 10
-254.208
 20
-205.494
 30
0.0
 11
-254.494
 21
-205.208
 31
0.0
  0
LINE
  8
3
 62
3
 10
-251.779
 20
-204.494
 30
0.0
 11
-251.779
 21
-205.637
 31
0.0
  0
LINE
  8
3
 62
3
 10
-251.065
 20
-206.065
 30
0.0
 11
-250.779
 21
-206.351
 31
0.0
  0
LINE
  8
3
 62
3
 10
-250.779
 20
-206.351
 30
0.0
 11
-250.494
 21
-206.78
 31
0.0
  0
LINE
  8
3
 62
3
 10
-250.494
 20
-206.78
 30
0.0
 11
-250.208
 21
-207.351
 31
0.0
  0
LINE
  8
3
 62
3
 10
-250.208
 20
-207.351
 30
0.0
 11
-250.065
 21
-208.065
 31
0.0
  0
LINE
  8
3
 62
3
 10
-250.065
 20
-208.065
 30
0.0
 11
-250.065
 21
-208.637
 31
0.0
  0
LINE
  8
3
 62
3
 10
-250.065
 20
-208.637
 30
0.0
 11
-250.208
 21
-209.351
 31
0.0
  0
LINE
  8
3
 62
3
 10
-250.208
 20
-209.351
 30
0.0
 11
-250.494
 21
-209.922
 31
0.0
  0
LINE
  8
3
 62
3
 10
-250.494
 20
-209.922
 30
0.0
 11
-250.779
 21
-210.351
 31
0.0
  0
LINE
  8
3
 62
3
 10
-250.779
 20
-210.351
 30
0.0
 11
-251.065
 21
-210.637
 31
0.0
  0
LINE
  8
3
 62
3
 10
-249.922
 20
-204.78
 30
0.0
 11
-249.922
 21
-204.494
 31
0.0
  0
LINE
  8
3
 62
3
 10
-249.922
 20
-204.494
 30
0.0
 11
-249.779
 21
-204.065
 31
0.0
  0
LINE
  8
3
 62
3
 10
-249.779
 20
-204.065
 30
0.0
 11
-249.494
 21
-203.78
 31
0.0
  0
LINE
  8
3
 62
3
 10
-249.494
 20
-203.78
 30
0.0
 11
-249.208
 21
-203.637
 31
0.0
  0
LINE
  8
3
 62
3
 10
-249.208
 20
-203.637
 30
0.0
 11
-248.779
 21
-203.637
 31
0.0
  0
LINE
  8
3
 62
3
 10
-248.779
 20
-203.637
 30
0.0
 11
-248.494
 21
-203.78
 31
0.0
  0
LINE
  8
3
 62
3
 10
-248.494
 20
-203.78
 30
0.0
 11
-248.208
 21
-204.065
 31
0.0
  0
LINE
  8
3
 62
3
 10
-248.208
 20
-204.065
 30
0.0
 11
-248.065
 21
-204.494
 31
0.0
  0
LINE
  8
3
 62
3
 10
-248.065
 20
-204.494
 30
0.0
 11
-248.065
 21
-204.78
 31
0.0
  0
LINE
  8
3
 62
3
 10
-248.065
 20
-204.78
 30
0.0
 11
-248.208
 21
-205.208
 31
0.0
  0
LINE
  8
3
 62
3
 10
-248.208
 20
-205.208
 30
0.0
 11
-248.494
 21
-205.494
 31
0.0
  0
LINE
  8
3
 62
3
 10
-248.494
 20
-205.494
 30
0.0
 11
-248.779
 21
-205.637
 31
0.0
  0
LINE
  8
3
 62
3
 10
-248.779
 20
-205.637
 30
0.0
 11
-249.208
 21
-205.637
 31
0.0
  0
LINE
  8
3
 62
3
 10
-249.208
 20
-205.637
 30
0.0
 11
-249.494
 21
-205.494
 31
0.0
  0
LINE
  8
3
 62
3
 10
-249.494
 20
-205.494
 30
0.0
 11
-249.706
 21
-205.282
 31
0.0
  0
LINE
  8
3
 62
3
 10
-249.706
 20
-205.282
 30
0.0
 11
-249.779
 21
-205.208
 31
0.0
  0
LINE
  8
3
 62
3
 10
-249.779
 20
-205.208
 30
0.0
 11
-249.922
 21
-204.78
 31
0.0
  0
LINE
  8
3
 62
3
 10
-250.636
 20
-203.637
 30
0.0
 11
-251.065
 21
-203.637
 31
0.0
  0
LINE
  8
3
 62
3
 10
-251.065
 20
-203.637
 30
0.0
 11
-251.351
 21
-203.78
 31
0.0
  0
LINE
  8
3
 62
3
 10
-251.351
 20
-203.78
 30
0.0
 11
-251.636
 21
-204.065
 31
0.0
  0
LINE
  8
3
 62
3
 10
-251.636
 20
-204.065
 30
0.0
 11
-251.779
 21
-204.494
 31
0.0
  0
LINE
  8
3
 62
3
 10
-251.779
 20
-204.494
 30
0.0
 11
-251.779
 21
-203.637
 31
0.0
  0
LINE
  8
3
 62
3
 10
-251.351
 20
-216.065
 30
0.0
 11
-251.636
 21
-215.78
 31
0.0
  0
LINE
  8
3
 62
3
 10
-251.636
 20
-215.78
 30
0.0
 11
-251.922
 21
-215.637
 31
0.0
  0
LINE
  8
3
 62
3
 10
-251.922
 20
-215.637
 30
0.0
 11
-252.351
 21
-215.637
 31
0.0
  0
LINE
  8
3
 62
3
 10
-252.351
 20
-215.637
 30
0.0
 11
-252.636
 21
-215.78
 31
0.0
  0
LINE
  8
3
 62
3
 10
-252.636
 20
-215.78
 30
0.0
 11
-252.922
 21
-216.065
 31
0.0
  0
LINE
  8
3
 62
3
 10
-252.922
 20
-216.065
 30
0.0
 11
-253.065
 21
-216.494
 31
0.0
  0
LINE
  8
3
 62
3
 10
-253.065
 20
-216.494
 30
0.0
 11
-253.065
 21
-216.78
 31
0.0
  0
LINE
  8
3
 62
3
 10
-253.065
 20
-216.78
 30
0.0
 11
-252.922
 21
-217.208
 31
0.0
  0
LINE
  8
3
 62
3
 10
-252.922
 20
-217.208
 30
0.0
 11
-252.636
 21
-217.494
 31
0.0
  0
LINE
  8
3
 62
3
 10
-252.636
 20
-217.494
 30
0.0
 11
-252.351
 21
-217.637
 31
0.0
  0
LINE
  8
3
 62
3
 10
-252.351
 20
-217.637
 30
0.0
 11
-251.922
 21
-217.637
 31
0.0
  0
LINE
  8
3
 62
3
 10
-251.922
 20
-217.637
 30
0.0
 11
-251.636
 21
-217.494
 31
0.0
  0
LINE
  8
3
 62
3
 10
-251.636
 20
-217.494
 30
0.0
 11
-251.351
 21
-217.208
 31
0.0
  0
LINE
  8
3
 62
3
 10
-250.494
 20
-215.637
 30
0.0
 11
-250.494
 21
-217.065
 31
0.0
  0
LINE
  8
3
 62
3
 10
-250.494
 20
-217.065
 30
0.0
 11
-250.351
 21
-217.494
 31
0.0
  0
LINE
  8
3
 62
3
 10
-250.351
 20
-217.494
 30
0.0
 11
-250.065
 21
-217.637
 31
0.0
  0
LINE
  8
3
 62
3
 10
-250.065
 20
-217.637
 30
0.0
 11
-249.636
 21
-217.637
 31
0.0
  0
LINE
  8
3
 62
3
 10
-249.636
 20
-217.637
 30
0.0
 11
-249.351
 21
-217.494
 31
0.0
  0
LINE
  8
3
 62
3
 10
-249.351
 20
-217.494
 30
0.0
 11
-248.922
 21
-217.065
 31
0.0
  0
LINE
  8
3
 62
3
 10
-248.922
 20
-217.065
 30
0.0
 11
-248.922
 21
-217.637
 31
0.0
  0
LINE
  8
3
 62
3
 10
-248.922
 20
-217.065
 30
0.0
 11
-248.922
 21
-215.637
 31
0.0
  0
LINE
  8
3
 62
3
 10
-247.351
 20
-214.637
 30
0.0
 11
-247.351
 21
-215.637
 31
0.0
  0
LINE
  8
3
 62
3
 10
-246.779
 20
-215.637
 30
0.0
 11
-247.351
 21
-215.637
 31
0.0
  0
LINE
  8
3
 62
3
 10
-247.779
 20
-215.637
 30
0.0
 11
-247.351
 21
-215.637
 31
0.0
  0
LINE
  8
3
 62
3
 10
-247.351
 20
-215.637
 30
0.0
 11
-247.351
 21
-217.065
 31
0.0
  0
LINE
  8
3
 62
3
 10
-247.351
 20
-217.065
 30
0.0
 11
-247.208
 21
-217.494
 31
0.0
  0
LINE
  8
3
 62
3
 10
-247.208
 20
-217.494
 30
0.0
 11
-246.922
 21
-217.637
 31
0.0
  0
LINE
  8
3
 62
3
 10
-246.922
 20
-217.637
 30
0.0
 11
-246.636
 21
-217.637
 31
0.0
  0
LINE
  8
3
 62
3
 10
-245.636
 20
-219.637
 30
0.0
 11
-246.065
 21
-219.637
 31
0.0
  0
LINE
  8
3
 62
3
 10
-246.065
 20
-219.637
 30
0.0
 11
-246.351
 21
-219.78
 31
0.0
  0
LINE
  8
3
 62
3
 10
-246.351
 20
-219.78
 30
0.0
 11
-246.636
 21
-220.065
 31
0.0
  0
LINE
  8
3
 62
3
 10
-246.636
 20
-220.065
 30
0.0
 11
-246.779
 21
-220.494
 31
0.0
  0
LINE
  8
3
 62
3
 10
-246.779
 20
-220.494
 30
0.0
 11
-246.779
 21
-219.637
 31
0.0
  0
LINE
  8
3
 62
3
 10
-246.779
 20
-220.494
 30
0.0
 11
-246.779
 21
-221.637
 31
0.0
  0
LINE
  8
3
 62
3
 10
-247.779
 20
-221.208
 30
0.0
 11
-247.779
 21
-220.065
 31
0.0
  0
LINE
  8
3
 62
3
 10
-247.779
 20
-219.637
 30
0.0
 11
-247.779
 21
-220.065
 31
0.0
  0
LINE
  8
3
 62
3
 10
-247.779
 20
-220.065
 30
0.0
 11
-248.065
 21
-219.78
 31
0.0
  0
LINE
  8
3
 62
3
 10
-248.065
 20
-219.78
 30
0.0
 11
-248.351
 21
-219.637
 31
0.0
  0
LINE
  8
3
 62
3
 10
-248.351
 20
-219.637
 30
0.0
 11
-248.779
 21
-219.637
 31
0.0
  0
LINE
  8
3
 62
3
 10
-248.779
 20
-219.637
 30
0.0
 11
-249.065
 21
-219.78
 31
0.0
  0
LINE
  8
3
 62
3
 10
-249.065
 20
-219.78
 30
0.0
 11
-249.351
 21
-220.065
 31
0.0
  0
LINE
  8
3
 62
3
 10
-249.351
 20
-220.065
 30
0.0
 11
-249.494
 21
-220.494
 31
0.0
  0
LINE
  8
3
 62
3
 10
-249.494
 20
-220.494
 30
0.0
 11
-249.494
 21
-220.78
 31
0.0
  0
LINE
  8
3
 62
3
 10
-249.494
 20
-220.78
 30
0.0
 11
-249.351
 21
-221.208
 31
0.0
  0
LINE
  8
3
 62
3
 10
-249.351
 20
-221.208
 30
0.0
 11
-249.065
 21
-221.494
 31
0.0
  0
LINE
  8
3
 62
3
 10
-249.065
 20
-221.494
 30
0.0
 11
-248.779
 21
-221.637
 31
0.0
  0
LINE
  8
3
 62
3
 10
-248.779
 20
-221.637
 30
0.0
 11
-248.351
 21
-221.637
 31
0.0
  0
LINE
  8
3
 62
3
 10
-248.351
 20
-221.637
 30
0.0
 11
-248.065
 21
-221.494
 31
0.0
  0
LINE
  8
3
 62
3
 10
-248.065
 20
-221.494
 30
0.0
 11
-247.779
 21
-221.208
 31
0.0
  0
LINE
  8
3
 62
3
 10
-247.779
 20
-221.208
 30
0.0
 11
-247.779
 21
-221.637
 31
0.0
  0
LINE
  8
3
 62
3
 10
-250.351
 20
-220.065
 30
0.0
 11
-250.636
 21
-219.78
 31
0.0
  0
LINE
  8
3
 62
3
 10
-250.636
 20
-219.78
 30
0.0
 11
-250.922
 21
-219.637
 31
0.0
  0
LINE
  8
3
 62
3
 10
-250.922
 20
-219.637
 30
0.0
 11
-251.351
 21
-219.637
 31
0.0
  0
LINE
  8
3
 62
3
 10
-251.351
 20
-219.637
 30
0.0
 11
-251.636
 21
-219.78
 31
0.0
  0
LINE
  8
3
 62
3
 10
-251.636
 20
-219.78
 30
0.0
 11
-251.922
 21
-220.065
 31
0.0
  0
LINE
  8
3
 62
3
 10
-251.922
 20
-220.065
 30
0.0
 11
-252.065
 21
-220.494
 31
0.0
  0
LINE
  8
3
 62
3
 10
-252.065
 20
-220.494
 30
0.0
 11
-252.065
 21
-220.78
 31
0.0
  0
LINE
  8
3
 62
3
 10
-252.065
 20
-220.78
 30
0.0
 11
-251.922
 21
-221.208
 31
0.0
  0
LINE
  8
3
 62
3
 10
-251.922
 20
-221.208
 30
0.0
 11
-251.636
 21
-221.494
 31
0.0
  0
LINE
  8
3
 62
3
 10
-251.636
 20
-221.494
 30
0.0
 11
-251.351
 21
-221.637
 31
0.0
  0
LINE
  8
3
 62
3
 10
-251.351
 20
-221.637
 30
0.0
 11
-250.922
 21
-221.637
 31
0.0
  0
LINE
  8
3
 62
3
 10
-250.922
 20
-221.637
 30
0.0
 11
-250.636
 21
-221.494
 31
0.0
  0
LINE
  8
3
 62
3
 10
-250.636
 20
-221.494
 30
0.0
 11
-250.351
 21
-221.208
 31
0.0
  0
LINE
  8
3
 62
3
 10
-248.351
 20
-223.637
 30
0.0
 11
-248.779
 21
-223.637
 31
0.0
  0
LINE
  8
3
 62
3
 10
-248.779
 20
-223.637
 30
0.0
 11
-249.065
 21
-223.78
 31
0.0
  0
LINE
  8
3
 62
3
 10
-249.065
 20
-223.78
 30
0.0
 11
-249.351
 21
-224.065
 31
0.0
  0
LINE
  8
3
 62
3
 10
-249.351
 20
-224.065
 30
0.0
 11
-249.494
 21
-224.494
 31
0.0
  0
LINE
  8
3
 62
3
 10
-249.494
 20
-224.494
 30
0.0
 11
-249.494
 21
-223.637
 31
0.0
  0
LINE
  8
3
 62
3
 10
-249.494
 20
-224.494
 30
0.0
 11
-249.494
 21
-225.637
 31
0.0
  0
LINE
  8
3
 62
3
 10
-247.494
 20
-225.637
 30
0.0
 11
-247.494
 21
-223.637
 31
0.0
  0
LINE
  8
3
 62
3
 10
-247.494
 20
-222.922
 30
0.0
 11
-247.636
 21
-222.78
 31
0.0
  0
LINE
  8
3
 62
3
 10
-247.636
 20
-222.78
 30
0.0
 11
-247.494
 21
-222.637
 31
0.0
  0
LINE
  8
3
 62
3
 10
-247.494
 20
-222.637
 30
0.0
 11
-247.351
 21
-222.78
 31
0.0
  0
LINE
  8
3
 62
3
 10
-247.351
 20
-222.78
 30
0.0
 11
-247.494
 21
-222.922
 31
0.0
  0
LINE
  8
3
 62
3
 10
-246.494
 20
-223.637
 30
0.0
 11
-246.494
 21
-224.208
 31
0.0
  0
LINE
  8
3
 62
3
 10
-246.494
 20
-224.208
 30
0.0
 11
-246.065
 21
-223.78
 31
0.0
  0
LINE
  8
3
 62
3
 10
-246.065
 20
-223.78
 30
0.0
 11
-245.779
 21
-223.637
 31
0.0
  0
LINE
  8
3
 62
3
 10
-245.779
 20
-223.637
 30
0.0
 11
-245.351
 21
-223.637
 31
0.0
  0
LINE
  8
3
 62
3
 10
-245.351
 20
-223.637
 30
0.0
 11
-245.065
 21
-223.78
 31
0.0
  0
LINE
  8
3
 62
3
 10
-245.065
 20
-223.78
 30
0.0
 11
-244.922
 21
-224.208
 31
0.0
  0
LINE
  8
3
 62
3
 10
-244.922
 20
-224.208
 30
0.0
 11
-244.922
 21
-225.637
 31
0.0
  0
LINE
  8
3
 62
3
 10
-246.494
 20
-224.208
 30
0.0
 11
-246.494
 21
-225.637
 31
0.0
  0
LINE
  8
3
 62
3
 10
-247.065
 20
-231.351
 30
0.0
 11
-247.065
 21
-231.208
 31
0.0
  0
LINE
  8
3
 62
3
 10
-247.065
 20
-231.208
 30
0.0
 11
-246.922
 21
-230.922
 31
0.0
  0
LINE
  8
3
 62
3
 10
-246.922
 20
-230.922
 30
0.0
 11
-246.779
 21
-230.78
 31
0.0
  0
LINE
  8
3
 62
3
 10
-246.779
 20
-230.78
 30
0.0
 11
-246.494
 21
-230.637
 31
0.0
  0
LINE
  8
3
 62
3
 10
-246.494
 20
-230.637
 30
0.0
 11
-245.922
 21
-230.637
 31
0.0
  0
LINE
  8
3
 62
3
 10
-245.922
 20
-230.637
 30
0.0
 11
-245.636
 21
-230.78
 31
0.0
  0
LINE
  8
3
 62
3
 10
-245.636
 20
-230.78
 30
0.0
 11
-245.494
 21
-230.922
 31
0.0
  0
LINE
  8
3
 62
3
 10
-245.494
 20
-230.922
 30
0.0
 11
-245.351
 21
-231.208
 31
0.0
  0
LINE
  8
3
 62
3
 10
-245.351
 20
-231.208
 30
0.0
 11
-245.351
 21
-231.494
 31
0.0
  0
LINE
  8
3
 62
3
 10
-245.351
 20
-231.494
 30
0.0
 11
-245.494
 21
-231.78
 31
0.0
  0
LINE
  8
3
 62
3
 10
-245.494
 20
-231.78
 30
0.0
 11
-245.779
 21
-232.208
 31
0.0
  0
LINE
  8
3
 62
3
 10
-245.779
 20
-232.208
 30
0.0
 11
-247.208
 21
-233.637
 31
0.0
  0
LINE
  8
3
 62
3
 10
-247.208
 20
-233.637
 30
0.0
 11
-245.208
 21
-233.637
 31
0.0
  0
LINE
  8
3
 62
3
 10
-248.065
 20
-233.637
 30
0.0
 11
-248.85
 21
-232.637
 31
0.0
  0
LINE
  8
3
 62
3
 10
-248.85
 20
-232.637
 30
0.0
 11
-248.065
 21
-231.637
 31
0.0
  0
LINE
  8
3
 62
3
 10
-248.85
 20
-232.637
 30
0.0
 11
-249.636
 21
-233.637
 31
0.0
  0
LINE
  8
3
 62
3
 10
-250.494
 20
-232.351
 30
0.0
 11
-250.636
 21
-233.065
 31
0.0
  0
LINE
  8
3
 62
3
 10
-250.636
 20
-233.065
 30
0.0
 11
-250.922
 21
-233.494
 31
0.0
  0
LINE
  8
3
 62
3
 10
-250.922
 20
-233.494
 30
0.0
 11
-251.351
 21
-233.637
 31
0.0
  0
LINE
  8
3
 62
3
 10
-251.351
 20
-233.637
 30
0.0
 11
-251.636
 21
-233.637
 31
0.0
  0
LINE
  8
3
 62
3
 10
-251.636
 20
-233.637
 30
0.0
 11
-252.065
 21
-233.494
 31
0.0
  0
LINE
  8
3
 62
3
 10
-252.065
 20
-233.494
 30
0.0
 11
-252.351
 21
-233.065
 31
0.0
  0
LINE
  8
3
 62
3
 10
-252.351
 20
-233.065
 30
0.0
 11
-252.494
 21
-232.351
 31
0.0
  0
LINE
  8
3
 62
3
 10
-252.494
 20
-232.351
 30
0.0
 11
-252.494
 21
-231.922
 31
0.0
  0
LINE
  8
3
 62
3
 10
-252.494
 20
-231.922
 30
0.0
 11
-252.351
 21
-231.208
 31
0.0
  0
LINE
  8
3
 62
3
 10
-252.351
 20
-231.208
 30
0.0
 11
-252.065
 21
-230.78
 31
0.0
  0
LINE
  8
3
 62
3
 10
-252.065
 20
-230.78
 30
0.0
 11
-251.636
 21
-230.637
 31
0.0
  0
LINE
  8
3
 62
3
 10
-251.636
 20
-230.637
 30
0.0
 11
-251.351
 21
-230.637
 31
0.0
  0
LINE
  8
3
 62
3
 10
-251.351
 20
-230.637
 30
0.0
 11
-250.922
 21
-230.78
 31
0.0
  0
LINE
  8
3
 62
3
 10
-250.922
 20
-230.78
 30
0.0
 11
-250.636
 21
-231.208
 31
0.0
  0
LINE
  8
3
 62
3
 10
-250.636
 20
-231.208
 30
0.0
 11
-250.494
 21
-231.922
 31
0.0
  0
LINE
  8
3
 62
3
 10
-250.494
 20
-231.922
 30
0.0
 11
-250.494
 21
-232.351
 31
0.0
  0
LINE
  8
3
 62
3
 10
-248.85
 20
-232.637
 30
0.0
 11
-249.636
 21
-231.637
 31
0.0
  0
LINE
  8
3
 62
3
 10
-252.208
 20
-226.637
 30
0.0
 11
-252.208
 21
-225.208
 31
0.0
  0
LINE
  8
3
 62
3
 10
-252.208
 20
-225.208
 30
0.0
 11
-252.208
 21
-224.065
 31
0.0
  0
LINE
  8
3
 62
3
 10
-252.208
 20
-224.065
 30
0.0
 11
-252.208
 21
-223.637
 31
0.0
  0
LINE
  8
3
 62
3
 10
-252.208
 20
-224.065
 30
0.0
 11
-251.922
 21
-223.78
 31
0.0
  0
LINE
  8
3
 62
3
 10
-251.922
 20
-223.78
 30
0.0
 11
-251.636
 21
-223.637
 31
0.0
  0
LINE
  8
3
 62
3
 10
-251.636
 20
-223.637
 30
0.0
 11
-251.208
 21
-223.637
 31
0.0
  0
LINE
  8
3
 62
3
 10
-251.208
 20
-223.637
 30
0.0
 11
-250.922
 21
-223.78
 31
0.0
  0
LINE
  8
3
 62
3
 10
-250.922
 20
-223.78
 30
0.0
 11
-250.636
 21
-224.065
 31
0.0
  0
LINE
  8
3
 62
3
 10
-250.636
 20
-224.065
 30
0.0
 11
-250.494
 21
-224.494
 31
0.0
  0
LINE
  8
3
 62
3
 10
-250.494
 20
-224.494
 30
0.0
 11
-250.494
 21
-224.78
 31
0.0
  0
LINE
  8
3
 62
3
 10
-250.494
 20
-224.78
 30
0.0
 11
-250.636
 21
-225.208
 31
0.0
  0
LINE
  8
3
 62
3
 10
-250.636
 20
-225.208
 30
0.0
 11
-250.922
 21
-225.494
 31
0.0
  0
LINE
  8
3
 62
3
 10
-250.922
 20
-225.494
 30
0.0
 11
-251.208
 21
-225.637
 31
0.0
  0
LINE
  8
3
 62
3
 10
-251.208
 20
-225.637
 30
0.0
 11
-251.636
 21
-225.637
 31
0.0
  0
LINE
  8
3
 62
3
 10
-251.636
 20
-225.637
 30
0.0
 11
-251.922
 21
-225.494
 31
0.0
  0
LINE
  8
3
 62
3
 10
-251.922
 20
-225.494
 30
0.0
 11
-252.208
 21
-225.208
 31
0.0
  0
LINE
  8
3
 62
3
 10
-244.922
 20
-219.637
 30
0.0
 11
-244.065
 21
-221.637
 31
0.0
  0
LINE
  8
3
 62
3
 10
-244.065
 20
-221.637
 30
0.0
 11
-243.208
 21
-219.637
 31
0.0
  0
LINE
  8
3
 62
3
 10
-243.351
 20
-222.637
 30
0.0
 11
-243.351
 21
-223.637
 31
0.0
  0
LINE
  8
3
 62
3
 10
-242.779
 20
-223.637
 30
0.0
 11
-243.351
 21
-223.637
 31
0.0
  0
LINE
  8
3
 62
3
 10
-243.779
 20
-223.637
 30
0.0
 11
-243.351
 21
-223.637
 31
0.0
  0
LINE
  8
3
 62
3
 10
-243.351
 20
-223.637
 30
0.0
 11
-243.351
 21
-225.065
 31
0.0
  0
LINE
  8
3
 62
3
 10
-243.351
 20
-225.065
 30
0.0
 11
-243.208
 21
-225.494
 31
0.0
  0
LINE
  8
3
 62
3
 10
-243.208
 20
-225.494
 30
0.0
 11
-242.922
 21
-225.637
 31
0.0
  0
LINE
  8
3
 62
3
 10
-242.922
 20
-225.637
 30
0.0
 11
-242.636
 21
-225.637
 31
0.0
  0
LINE
  8
3
 62
3
 10
-242.636
 20
-220.494
 30
0.0
 11
-240.922
 21
-220.494
 31
0.0
  0
LINE
  8
3
 62
3
 10
-240.922
 20
-220.494
 30
0.0
 11
-240.922
 21
-220.208
 31
0.0
  0
LINE
  8
3
 62
3
 10
-240.922
 20
-220.208
 30
0.0
 11
-241.065
 21
-219.922
 31
0.0
  0
LINE
  8
3
 62
3
 10
-241.065
 20
-219.922
 30
0.0
 11
-241.208
 21
-219.78
 31
0.0
  0
LINE
  8
3
 62
3
 10
-241.208
 20
-219.78
 30
0.0
 11
-241.494
 21
-219.637
 31
0.0
  0
LINE
  8
3
 62
3
 10
-241.494
 20
-219.637
 30
0.0
 11
-241.922
 21
-219.637
 31
0.0
  0
LINE
  8
3
 62
3
 10
-241.922
 20
-219.637
 30
0.0
 11
-242.208
 21
-219.78
 31
0.0
  0
LINE
  8
3
 62
3
 10
-242.208
 20
-219.78
 30
0.0
 11
-242.494
 21
-220.065
 31
0.0
  0
LINE
  8
3
 62
3
 10
-242.494
 20
-220.065
 30
0.0
 11
-242.636
 21
-220.494
 31
0.0
  0
LINE
  8
3
 62
3
 10
-242.636
 20
-220.494
 30
0.0
 11
-242.636
 21
-220.78
 31
0.0
  0
LINE
  8
3
 62
3
 10
-242.636
 20
-220.78
 30
0.0
 11
-242.494
 21
-221.208
 31
0.0
  0
LINE
  8
3
 62
3
 10
-242.494
 20
-221.208
 30
0.0
 11
-242.208
 21
-221.494
 31
0.0
  0
LINE
  8
3
 62
3
 10
-242.208
 20
-221.494
 30
0.0
 11
-241.922
 21
-221.637
 31
0.0
  0
LINE
  8
3
 62
3
 10
-241.922
 20
-221.637
 30
0.0
 11
-241.494
 21
-221.637
 31
0.0
  0
LINE
  8
3
 62
3
 10
-241.494
 20
-221.637
 30
0.0
 11
-241.208
 21
-221.494
 31
0.0
  0
LINE
  8
3
 62
3
 10
-241.208
 20
-221.494
 30
0.0
 11
-240.922
 21
-221.208
 31
0.0
  0
LINE
  8
3
 62
3
 10
-242.494
 20
-231.208
 30
0.0
 11
-242.351
 21
-231.922
 31
0.0
  0
LINE
  8
3
 62
3
 10
-242.351
 20
-231.922
 30
0.0
 11
-242.351
 21
-232.351
 31
0.0
  0
LINE
  8
3
 62
3
 10
-242.351
 20
-232.351
 30
0.0
 11
-242.494
 21
-233.065
 31
0.0
  0
LINE
  8
3
 62
3
 10
-242.494
 20
-233.065
 30
0.0
 11
-242.779
 21
-233.494
 31
0.0
  0
LINE
  8
3
 62
3
 10
-242.779
 20
-233.494
 30
0.0
 11
-243.208
 21
-233.637
 31
0.0
  0
LINE
  8
3
 62
3
 10
-243.208
 20
-233.637
 30
0.0
 11
-243.494
 21
-233.637
 31
0.0
  0
LINE
  8
3
 62
3
 10
-243.494
 20
-233.637
 30
0.0
 11
-243.922
 21
-233.494
 31
0.0
  0
LINE
  8
3
 62
3
 10
-243.922
 20
-233.494
 30
0.0
 11
-244.208
 21
-233.065
 31
0.0
  0
LINE
  8
3
 62
3
 10
-244.208
 20
-233.065
 30
0.0
 11
-244.351
 21
-232.351
 31
0.0
  0
LINE
  8
3
 62
3
 10
-244.351
 20
-232.351
 30
0.0
 11
-244.351
 21
-231.922
 31
0.0
  0
LINE
  8
3
 62
3
 10
-244.351
 20
-231.922
 30
0.0
 11
-244.208
 21
-231.208
 31
0.0
  0
LINE
  8
3
 62
3
 10
-244.208
 20
-231.208
 30
0.0
 11
-243.922
 21
-230.78
 31
0.0
  0
LINE
  8
3
 62
3
 10
-243.922
 20
-230.78
 30
0.0
 11
-243.494
 21
-230.637
 31
0.0
  0
LINE
  8
3
 62
3
 10
-243.494
 20
-230.637
 30
0.0
 11
-243.208
 21
-230.637
 31
0.0
  0
LINE
  8
3
 62
3
 10
-243.208
 20
-230.637
 30
0.0
 11
-242.779
 21
-230.78
 31
0.0
  0
LINE
  8
3
 62
3
 10
-242.779
 20
-230.78
 30
0.0
 11
-242.494
 21
-231.208
 31
0.0
  0
LINE
  8
3
 62
3
 10
-241.494
 20
-233.637
 30
0.0
 11
-241.494
 21
-232.208
 31
0.0
  0
LINE
  8
3
 62
3
 10
-241.494
 20
-231.637
 30
0.0
 11
-241.494
 21
-232.208
 31
0.0
  0
LINE
  8
3
 62
3
 10
-241.494
 20
-232.208
 30
0.0
 11
-241.065
 21
-231.78
 31
0.0
  0
LINE
  8
3
 62
3
 10
-241.065
 20
-231.78
 30
0.0
 11
-240.779
 21
-231.637
 31
0.0
  0
LINE
  8
3
 62
3
 10
-240.779
 20
-231.637
 30
0.0
 11
-240.351
 21
-231.637
 31
0.0
  0
LINE
  8
3
 62
3
 10
-240.351
 20
-231.637
 30
0.0
 11
-240.065
 21
-231.78
 31
0.0
  0
LINE
  8
3
 62
3
 10
-240.065
 20
-231.78
 30
0.0
 11
-239.922
 21
-232.208
 31
0.0
  0
LINE
  8
3
 62
3
 10
-239.922
 20
-232.208
 30
0.0
 11
-239.494
 21
-231.78
 31
0.0
  0
LINE
  8
3
 62
3
 10
-239.494
 20
-231.78
 30
0.0
 11
-239.208
 21
-231.637
 31
0.0
  0
LINE
  8
3
 62
3
 10
-239.208
 20
-231.637
 30
0.0
 11
-238.779
 21
-231.637
 31
0.0
  0
LINE
  8
3
 62
3
 10
-238.779
 20
-231.637
 30
0.0
 11
-238.494
 21
-231.78
 31
0.0
  0
LINE
  8
3
 62
3
 10
-238.494
 20
-231.78
 30
0.0
 11
-238.351
 21
-232.208
 31
0.0
  0
LINE
  8
3
 62
3
 10
-238.351
 20
-232.208
 30
0.0
 11
-238.351
 21
-233.637
 31
0.0
  0
LINE
  8
3
 62
3
 10
-239.922
 20
-233.637
 30
0.0
 11
-239.922
 21
-232.208
 31
0.0
  0
LINE
  8
3
 62
3
 10
-256.351
 20
-230.065
 30
0.0
 11
-256.636
 21
-230.351
 31
0.0
  0
LINE
  8
3
 62
3
 10
-256.636
 20
-230.351
 30
0.0
 11
-256.922
 21
-230.78
 31
0.0
  0
LINE
  8
3
 62
3
 10
-256.922
 20
-230.78
 30
0.0
 11
-257.208
 21
-231.351
 31
0.0
  0
LINE
  8
3
 62
3
 10
-257.208
 20
-231.351
 30
0.0
 11
-257.351
 21
-232.065
 31
0.0
  0
LINE
  8
3
 62
3
 10
-257.351
 20
-232.065
 30
0.0
 11
-257.351
 21
-232.637
 31
0.0
  0
LINE
  8
3
 62
3
 10
-257.351
 20
-232.637
 30
0.0
 11
-257.208
 21
-233.351
 31
0.0
  0
LINE
  8
3
 62
3
 10
-257.208
 20
-233.351
 30
0.0
 11
-256.922
 21
-233.922
 31
0.0
  0
LINE
  8
3
 62
3
 10
-256.922
 20
-233.922
 30
0.0
 11
-256.636
 21
-234.351
 31
0.0
  0
LINE
  8
3
 62
3
 10
-256.636
 20
-234.351
 30
0.0
 11
-256.351
 21
-234.637
 31
0.0
  0
LINE
  8
3
 62
3
 10
-253.351
 20
-233.637
 30
0.0
 11
-255.351
 21
-233.637
 31
0.0
  0
LINE
  8
3
 62
3
 10
-255.351
 20
-233.637
 30
0.0
 11
-253.922
 21
-232.208
 31
0.0
  0
LINE
  8
3
 62
3
 10
-253.922
 20
-232.208
 30
0.0
 11
-253.636
 21
-231.78
 31
0.0
  0
LINE
  8
3
 62
3
 10
-253.636
 20
-231.78
 30
0.0
 11
-253.494
 21
-231.494
 31
0.0
  0
LINE
  8
3
 62
3
 10
-253.494
 20
-231.494
 30
0.0
 11
-253.494
 21
-231.208
 31
0.0
  0
LINE
  8
3
 62
3
 10
-253.494
 20
-231.208
 30
0.0
 11
-253.636
 21
-230.922
 31
0.0
  0
LINE
  8
3
 62
3
 10
-253.636
 20
-230.922
 30
0.0
 11
-253.779
 21
-230.78
 31
0.0
  0
LINE
  8
3
 62
3
 10
-253.779
 20
-230.78
 30
0.0
 11
-254.065
 21
-230.637
 31
0.0
  0
LINE
  8
3
 62
3
 10
-254.065
 20
-230.637
 30
0.0
 11
-254.636
 21
-230.637
 31
0.0
  0
LINE
  8
3
 62
3
 10
-254.636
 20
-230.637
 30
0.0
 11
-254.922
 21
-230.78
 31
0.0
  0
LINE
  8
3
 62
3
 10
-254.922
 20
-230.78
 30
0.0
 11
-255.065
 21
-230.922
 31
0.0
  0
LINE
  8
3
 62
3
 10
-255.065
 20
-230.922
 30
0.0
 11
-255.208
 21
-231.208
 31
0.0
  0
LINE
  8
3
 62
3
 10
-255.208
 20
-231.208
 30
0.0
 11
-255.208
 21
-231.351
 31
0.0
  0
LINE
  8
3
 62
3
 10
-264.208
 20
-224.351
 30
0.0
 11
-266.779
 21
-224.351
 31
0.0
  0
LINE
  8
3
 62
3
 10
-266.636
 20
-220.351
 30
0.0
 11
-264.065
 21
-220.351
 31
0.0
  0
LINE
  8
3
 62
3
 10
-265.065
 20
-216.351
 30
0.0
 11
-267.636
 21
-216.351
 31
0.0
  0
LINE
  8
3
 62
3
 10
-277.065
 20
-209.208
 30
0.0
 11
-277.351
 21
-209.494
 31
0.0
  0
LINE
  8
3
 62
3
 10
-277.351
 20
-209.494
 30
0.0
 11
-277.636
 21
-209.637
 31
0.0
  0
LINE
  8
3
 62
3
 10
-277.636
 20
-209.637
 30
0.0
 11
-278.065
 21
-209.637
 31
0.0
  0
LINE
  8
3
 62
3
 10
-278.065
 20
-209.637
 30
0.0
 11
-278.351
 21
-209.494
 31
0.0
  0
LINE
  8
3
 62
3
 10
-278.351
 20
-209.494
 30
0.0
 11
-278.636
 21
-209.208
 31
0.0
  0
LINE
  8
3
 62
3
 10
-278.636
 20
-209.208
 30
0.0
 11
-278.779
 21
-208.78
 31
0.0
  0
LINE
  8
3
 62
3
 10
-278.779
 20
-208.78
 30
0.0
 11
-278.779
 21
-208.494
 31
0.0
  0
LINE
  8
3
 62
3
 10
-278.779
 20
-208.494
 30
0.0
 11
-278.636
 21
-208.065
 31
0.0
  0
LINE
  8
3
 62
3
 10
-278.636
 20
-208.065
 30
0.0
 11
-278.351
 21
-207.78
 31
0.0
  0
LINE
  8
3
 62
3
 10
-278.351
 20
-207.78
 30
0.0
 11
-278.065
 21
-207.637
 31
0.0
  0
LINE
  8
3
 62
3
 10
-278.065
 20
-207.637
 30
0.0
 11
-277.636
 21
-207.637
 31
0.0
  0
LINE
  8
3
 62
3
 10
-277.636
 20
-207.637
 30
0.0
 11
-277.351
 21
-207.78
 31
0.0
  0
LINE
  8
3
 62
3
 10
-277.351
 20
-207.78
 30
0.0
 11
-277.208
 21
-207.922
 31
0.0
  0
LINE
  8
3
 62
3
 10
-277.208
 20
-207.922
 30
0.0
 11
-277.065
 21
-208.208
 31
0.0
  0
LINE
  8
3
 62
3
 10
-277.065
 20
-208.208
 30
0.0
 11
-277.065
 21
-208.494
 31
0.0
  0
LINE
  8
3
 62
3
 10
-277.065
 20
-208.494
 30
0.0
 11
-278.779
 21
-208.494
 31
0.0
  0
LINE
  8
3
 62
3
 10
-279.636
 20
-209.637
 30
0.0
 11
-279.922
 21
-209.637
 31
0.0
  0
LINE
  8
3
 62
3
 10
-279.922
 20
-209.637
 30
0.0
 11
-280.208
 21
-209.494
 31
0.0
  0
LINE
  8
3
 62
3
 10
-280.208
 20
-209.494
 30
0.0
 11
-280.351
 21
-209.065
 31
0.0
  0
LINE
  8
3
 62
3
 10
-280.351
 20
-209.065
 30
0.0
 11
-280.351
 21
-207.637
 31
0.0
  0
LINE
  8
3
 62
3
 10
-280.351
 20
-207.637
 30
0.0
 11
-280.779
 21
-207.637
 31
0.0
  0
LINE
  8
3
 62
3
 10
-280.351
 20
-206.637
 30
0.0
 11
-280.351
 21
-207.637
 31
0.0
  0
LINE
  8
3
 62
3
 10
-280.351
 20
-207.637
 30
0.0
 11
-279.779
 21
-207.637
 31
0.0
  0
LINE
  8
3
 62
3
 10
-278.636
 20
-205.494
 30
0.0
 11
-278.922
 21
-205.637
 31
0.0
  0
LINE
  8
3
 62
3
 10
-278.922
 20
-205.637
 30
0.0
 11
-279.494
 21
-205.637
 31
0.0
  0
LINE
  8
3
 62
3
 10
-279.494
 20
-205.637
 30
0.0
 11
-279.779
 21
-205.494
 31
0.0
  0
LINE
  8
3
 62
3
 10
-279.779
 20
-205.494
 30
0.0
 11
-280.065
 21
-205.208
 31
0.0
  0
LINE
  8
3
 62
3
 10
-280.065
 20
-205.208
 30
0.0
 11
-280.208
 21
-204.922
 31
0.0
  0
LINE
  8
3
 62
3
 10
-280.208
 20
-204.922
 30
0.0
 11
-280.351
 21
-204.494
 31
0.0
  0
LINE
  8
3
 62
3
 10
-280.351
 20
-204.494
 30
0.0
 11
-280.351
 21
-203.78
 31
0.0
  0
LINE
  8
3
 62
3
 10
-280.351
 20
-203.78
 30
0.0
 11
-280.208
 21
-203.351
 31
0.0
  0
LINE
  8
3
 62
3
 10
-280.208
 20
-203.351
 30
0.0
 11
-280.065
 21
-203.065
 31
0.0
  0
LINE
  8
3
 62
3
 10
-280.065
 20
-203.065
 30
0.0
 11
-279.779
 21
-202.78
 31
0.0
  0
LINE
  8
3
 62
3
 10
-279.779
 20
-202.78
 30
0.0
 11
-279.494
 21
-202.637
 31
0.0
  0
LINE
  8
3
 62
3
 10
-279.494
 20
-202.637
 30
0.0
 11
-278.922
 21
-202.637
 31
0.0
  0
LINE
  8
3
 62
3
 10
-278.922
 20
-202.637
 30
0.0
 11
-278.636
 21
-202.78
 31
0.0
  0
LINE
  8
3
 62
3
 10
-278.636
 20
-202.78
 30
0.0
 11
-278.351
 21
-203.065
 31
0.0
  0
LINE
  8
3
 62
3
 10
-278.351
 20
-203.065
 30
0.0
 11
-278.208
 21
-203.351
 31
0.0
  0
LINE
  8
3
 62
3
 10
-278.208
 20
-203.351
 30
0.0
 11
-278.065
 21
-203.78
 31
0.0
  0
LINE
  8
3
 62
3
 10
-278.065
 20
-203.78
 30
0.0
 11
-278.065
 21
-204.494
 31
0.0
  0
LINE
  8
3
 62
3
 10
-278.065
 20
-204.494
 30
0.0
 11
-278.208
 21
-204.922
 31
0.0
  0
LINE
  8
3
 62
3
 10
-278.208
 20
-204.922
 30
0.0
 11
-278.351
 21
-205.208
 31
0.0
  0
LINE
  8
3
 62
3
 10
-278.351
 20
-205.208
 30
0.0
 11
-278.636
 21
-205.494
 31
0.0
  0
LINE
  8
3
 62
3
 10
-277.208
 20
-205.637
 30
0.0
 11
-277.208
 21
-204.494
 31
0.0
  0
LINE
  8
3
 62
3
 10
-277.208
 20
-203.637
 30
0.0
 11
-277.208
 21
-204.494
 31
0.0
  0
LINE
  8
3
 62
3
 10
-277.208
 20
-204.494
 30
0.0
 11
-277.065
 21
-204.065
 31
0.0
  0
LINE
  8
3
 62
3
 10
-277.065
 20
-204.065
 30
0.0
 11
-276.779
 21
-203.78
 31
0.0
  0
LINE
  8
3
 62
3
 10
-276.779
 20
-203.78
 30
0.0
 11
-276.494
 21
-203.637
 31
0.0
  0
LINE
  8
3
 62
3
 10
-276.494
 20
-203.637
 30
0.0
 11
-276.065
 21
-203.637
 31
0.0
  0
LINE
  8
3
 62
3
 10
-273.636
 20
-204.065
 30
0.0
 11
-273.922
 21
-203.78
 31
0.0
  0
LINE
  8
3
 62
3
 10
-273.922
 20
-203.78
 30
0.0
 11
-274.208
 21
-203.637
 31
0.0
  0
LINE
  8
3
 62
3
 10
-274.208
 20
-203.637
 30
0.0
 11
-274.636
 21
-203.637
 31
0.0
  0
LINE
  8
3
 62
3
 10
-274.636
 20
-203.637
 30
0.0
 11
-274.922
 21
-203.78
 31
0.0
  0
LINE
  8
3
 62
3
 10
-274.922
 20
-203.78
 30
0.0
 11
-275.208
 21
-204.065
 31
0.0
  0
LINE
  8
3
 62
3
 10
-275.208
 20
-204.065
 30
0.0
 11
-275.351
 21
-204.494
 31
0.0
  0
LINE
  8
3
 62
3
 10
-275.351
 20
-204.494
 30
0.0
 11
-275.351
 21
-204.78
 31
0.0
  0
LINE
  8
3
 62
3
 10
-275.351
 20
-204.78
 30
0.0
 11
-275.208
 21
-205.208
 31
0.0
  0
LINE
  8
3
 62
3
 10
-275.208
 20
-205.208
 30
0.0
 11
-274.922
 21
-205.494
 31
0.0
  0
LINE
  8
3
 62
3
 10
-274.922
 20
-205.494
 30
0.0
 11
-274.636
 21
-205.637
 31
0.0
  0
LINE
  8
3
 62
3
 10
-274.636
 20
-205.637
 30
0.0
 11
-274.208
 21
-205.637
 31
0.0
  0
LINE
  8
3
 62
3
 10
-274.208
 20
-205.637
 30
0.0
 11
-273.922
 21
-205.494
 31
0.0
  0
LINE
  8
3
 62
3
 10
-273.922
 20
-205.494
 30
0.0
 11
-273.636
 21
-205.208
 31
0.0
  0
LINE
  8
3
 62
3
 10
-274.922
 20
-206.494
 30
0.0
 11
-274.636
 21
-206.637
 31
0.0
  0
LINE
  8
3
 62
3
 10
-274.636
 20
-206.637
 30
0.0
 11
-274.208
 21
-206.637
 31
0.0
  0
LINE
  8
3
 62
3
 10
-274.208
 20
-206.637
 30
0.0
 11
-273.922
 21
-206.494
 31
0.0
  0
LINE
  8
3
 62
3
 10
-273.922
 20
-206.494
 30
0.0
 11
-273.779
 21
-206.351
 31
0.0
  0
LINE
  8
3
 62
3
 10
-273.779
 20
-206.351
 30
0.0
 11
-273.636
 21
-205.922
 31
0.0
  0
LINE
  8
3
 62
3
 10
-273.636
 20
-205.922
 30
0.0
 11
-273.636
 21
-204.065
 31
0.0
  0
LINE
  8
3
 62
3
 10
-273.636
 20
-204.065
 30
0.0
 11
-273.636
 21
-203.637
 31
0.0
  0
LINE
  8
3
 62
3
 10
-269.922
 20
-202.637
 30
0.0
 11
-269.922
 21
-205.637
 31
0.0
  0
LINE
  8
3
 62
3
 10
-285.065
 20
-206.637
 30
0.0
 11
-284.779
 21
-206.351
 31
0.0
  0
LINE
  8
3
 62
3
 10
-284.779
 20
-206.351
 30
0.0
 11
-284.494
 21
-205.922
 31
0.0
  0
LINE
  8
3
 62
3
 10
-284.494
 20
-205.922
 30
0.0
 11
-284.208
 21
-205.351
 31
0.0
  0
LINE
  8
3
 62
3
 10
-284.208
 20
-205.351
 30
0.0
 11
-284.065
 21
-204.637
 31
0.0
  0
LINE
  8
3
 62
3
 10
-284.065
 20
-204.637
 30
0.0
 11
-284.065
 21
-204.065
 31
0.0
  0
LINE
  8
3
 62
3
 10
-284.065
 20
-204.065
 30
0.0
 11
-284.208
 21
-203.351
 31
0.0
  0
LINE
  8
3
 62
3
 10
-284.208
 20
-203.351
 30
0.0
 11
-284.494
 21
-202.78
 31
0.0
  0
LINE
  8
3
 62
3
 10
-284.494
 20
-202.78
 30
0.0
 11
-284.779
 21
-202.351
 31
0.0
  0
LINE
  8
3
 62
3
 10
-284.779
 20
-202.351
 30
0.0
 11
-285.065
 21
-202.065
 31
0.0
  0
LINE
  8
3
 62
3
 10
-285.922
 20
-203.351
 30
0.0
 11
-286.065
 21
-203.065
 31
0.0
  0
LINE
  8
3
 62
3
 10
-286.065
 20
-203.065
 30
0.0
 11
-286.351
 21
-202.78
 31
0.0
  0
LINE
  8
3
 62
3
 10
-286.351
 20
-202.78
 30
0.0
 11
-286.636
 21
-202.637
 31
0.0
  0
LINE
  8
3
 62
3
 10
-286.636
 20
-202.637
 30
0.0
 11
-287.208
 21
-202.637
 31
0.0
  0
LINE
  8
3
 62
3
 10
-287.208
 20
-202.637
 30
0.0
 11
-287.494
 21
-202.78
 31
0.0
  0
LINE
  8
3
 62
3
 10
-287.494
 20
-202.78
 30
0.0
 11
-287.779
 21
-203.065
 31
0.0
  0
LINE
  8
3
 62
3
 10
-287.779
 20
-203.065
 30
0.0
 11
-287.922
 21
-203.351
 31
0.0
  0
LINE
  8
3
 62
3
 10
-287.922
 20
-203.351
 30
0.0
 11
-288.065
 21
-203.78
 31
0.0
  0
LINE
  8
3
 62
3
 10
-288.065
 20
-203.78
 30
0.0
 11
-288.065
 21
-204.494
 31
0.0
  0
LINE
  8
3
 62
3
 10
-288.065
 20
-204.494
 30
0.0
 11
-287.922
 21
-204.922
 31
0.0
  0
LINE
  8
3
 62
3
 10
-287.922
 20
-204.922
 30
0.0
 11
-287.779
 21
-205.208
 31
0.0
  0
LINE
  8
3
 62
3
 10
-287.779
 20
-205.208
 30
0.0
 11
-287.494
 21
-205.494
 31
0.0
  0
LINE
  8
3
 62
3
 10
-287.494
 20
-205.494
 30
0.0
 11
-287.208
 21
-205.637
 31
0.0
  0
LINE
  8
3
 62
3
 10
-287.208
 20
-205.637
 30
0.0
 11
-286.636
 21
-205.637
 31
0.0
  0
LINE
  8
3
 62
3
 10
-286.636
 20
-205.637
 30
0.0
 11
-286.351
 21
-205.494
 31
0.0
  0
LINE
  8
3
 62
3
 10
-286.351
 20
-205.494
 30
0.0
 11
-286.065
 21
-205.208
 31
0.0
  0
LINE
  8
3
 62
3
 10
-286.065
 20
-205.208
 30
0.0
 11
-285.922
 21
-204.922
 31
0.0
  0
LINE
  8
3
 62
3
 10
-289.065
 20
-206.637
 30
0.0
 11
-289.351
 21
-206.351
 31
0.0
  0
LINE
  8
3
 62
3
 10
-289.351
 20
-206.351
 30
0.0
 11
-289.065
 21
-206.065
 31
0.0
  0
LINE
  8
3
 62
3
 10
-285.779
 20
-209.637
 30
0.0
 11
-285.779
 21
-206.637
 31
0.0
  0
LINE
  8
3
 62
3
 10
-285.779
 20
-206.637
 30
0.0
 11
-286.922
 21
-209.637
 31
0.0
  0
LINE
  8
3
 62
3
 10
-286.922
 20
-209.637
 30
0.0
 11
-288.065
 21
-206.637
 31
0.0
  0
LINE
  8
3
 62
3
 10
-288.065
 20
-206.637
 30
0.0
 11
-288.065
 21
-209.637
 31
0.0
  0
LINE
  8
3
 62
3
 10
-289.065
 20
-210.637
 30
0.0
 11
-289.351
 21
-210.351
 31
0.0
  0
LINE
  8
3
 62
3
 10
-289.351
 20
-210.351
 30
0.0
 11
-289.636
 21
-209.922
 31
0.0
  0
LINE
  8
3
 62
3
 10
-289.636
 20
-209.922
 30
0.0
 11
-289.922
 21
-209.351
 31
0.0
  0
LINE
  8
3
 62
3
 10
-289.922
 20
-209.351
 30
0.0
 11
-290.065
 21
-208.637
 31
0.0
  0
LINE
  8
3
 62
3
 10
-290.065
 20
-208.637
 30
0.0
 11
-290.065
 21
-208.065
 31
0.0
  0
LINE
  8
3
 62
3
 10
-290.065
 20
-208.065
 30
0.0
 11
-289.922
 21
-207.351
 31
0.0
  0
LINE
  8
3
 62
3
 10
-289.922
 20
-207.351
 30
0.0
 11
-289.636
 21
-206.78
 31
0.0
  0
LINE
  8
3
 62
3
 10
-289.636
 20
-206.78
 30
0.0
 11
-289.351
 21
-206.351
 31
0.0
  0
LINE
  8
3
 62
3
 10
-289.351
 20
-206.351
 30
0.0
 11
-289.636
 21
-205.922
 31
0.0
  0
LINE
  8
3
 62
3
 10
-289.636
 20
-205.922
 30
0.0
 11
-289.922
 21
-205.351
 31
0.0
  0
LINE
  8
3
 62
3
 10
-289.922
 20
-205.351
 30
0.0
 11
-290.065
 21
-204.637
 31
0.0
  0
LINE
  8
3
 62
3
 10
-290.065
 20
-204.637
 30
0.0
 11
-290.065
 21
-204.065
 31
0.0
  0
LINE
  8
3
 62
3
 10
-290.065
 20
-204.065
 30
0.0
 11
-289.922
 21
-203.351
 31
0.0
  0
LINE
  8
3
 62
3
 10
-289.922
 20
-203.351
 30
0.0
 11
-289.636
 21
-202.78
 31
0.0
  0
LINE
  8
3
 62
3
 10
-289.636
 20
-202.78
 30
0.0
 11
-289.351
 21
-202.351
 31
0.0
  0
LINE
  8
3
 62
3
 10
-289.351
 20
-202.351
 30
0.0
 11
-289.065
 21
-202.065
 31
0.0
  0
LINE
  8
3
 62
3
 10
-282.922
 20
-207.637
 30
0.0
 11
-282.922
 21
-208.065
 31
0.0
  0
LINE
  8
3
 62
3
 10
-282.922
 20
-208.065
 30
0.0
 11
-283.208
 21
-207.78
 31
0.0
  0
LINE
  8
3
 62
3
 10
-283.208
 20
-207.78
 30
0.0
 11
-283.494
 21
-207.637
 31
0.0
  0
LINE
  8
3
 62
3
 10
-283.494
 20
-207.637
 30
0.0
 11
-283.922
 21
-207.637
 31
0.0
  0
LINE
  8
3
 62
3
 10
-283.922
 20
-207.637
 30
0.0
 11
-284.208
 21
-207.78
 31
0.0
  0
LINE
  8
3
 62
3
 10
-284.208
 20
-207.78
 30
0.0
 11
-284.494
 21
-208.065
 31
0.0
  0
LINE
  8
3
 62
3
 10
-284.494
 20
-208.065
 30
0.0
 11
-284.636
 21
-208.494
 31
0.0
  0
LINE
  8
3
 62
3
 10
-284.636
 20
-208.494
 30
0.0
 11
-284.636
 21
-208.78
 31
0.0
  0
LINE
  8
3
 62
3
 10
-284.636
 20
-208.78
 30
0.0
 11
-284.494
 21
-209.208
 31
0.0
  0
LINE
  8
3
 62
3
 10
-284.494
 20
-209.208
 30
0.0
 11
-284.208
 21
-209.494
 31
0.0
  0
LINE
  8
3
 62
3
 10
-284.208
 20
-209.494
 30
0.0
 11
-283.922
 21
-209.637
 31
0.0
  0
LINE
  8
3
 62
3
 10
-283.922
 20
-209.637
 30
0.0
 11
-283.494
 21
-209.637
 31
0.0
  0
LINE
  8
3
 62
3
 10
-283.494
 20
-209.637
 30
0.0
 11
-283.208
 21
-209.494
 31
0.0
  0
LINE
  8
3
 62
3
 10
-283.208
 20
-209.494
 30
0.0
 11
-282.922
 21
-209.208
 31
0.0
  0
LINE
  8
3
 62
3
 10
-282.922
 20
-209.208
 30
0.0
 11
-282.922
 21
-209.637
 31
0.0
  0
LINE
  8
3
 62
3
 10
-282.922
 20
-209.208
 30
0.0
 11
-282.922
 21
-208.065
 31
0.0
  0
LINE
  8
3
 62
3
 10
-281.922
 20
-206.637
 30
0.0
 11
-281.922
 21
-209.637
 31
0.0
  0
LINE
  8
3
 62
3
 10
-279.779
 20
-232.065
 30
0.0
 11
-279.922
 21
-231.78
 31
0.0
  0
LINE
  8
3
 62
3
 10
-279.922
 20
-231.78
 30
0.0
 11
-280.351
 21
-231.637
 31
0.0
  0
LINE
  8
3
 62
3
 10
-280.351
 20
-231.637
 30
0.0
 11
-280.779
 21
-231.637
 31
0.0
  0
LINE
  8
3
 62
3
 10
-280.779
 20
-231.637
 30
0.0
 11
-281.208
 21
-231.78
 31
0.0
  0
LINE
  8
3
 62
3
 10
-281.208
 20
-231.78
 30
0.0
 11
-281.351
 21
-232.065
 31
0.0
  0
LINE
  8
3
 62
3
 10
-281.351
 20
-232.065
 30
0.0
 11
-281.208
 21
-232.351
 31
0.0
  0
LINE
  8
3
 62
3
 10
-281.208
 20
-232.351
 30
0.0
 11
-280.922
 21
-232.494
 31
0.0
  0
LINE
  8
3
 62
3
 10
-280.922
 20
-232.494
 30
0.0
 11
-280.208
 21
-232.637
 31
0.0
  0
LINE
  8
3
 62
3
 10
-280.208
 20
-232.637
 30
0.0
 11
-279.922
 21
-232.78
 31
0.0
  0
LINE
  8
3
 62
3
 10
-279.922
 20
-232.78
 30
0.0
 11
-279.779
 21
-233.065
 31
0.0
  0
LINE
  8
3
 62
3
 10
-279.779
 20
-233.065
 30
0.0
 11
-279.779
 21
-233.208
 31
0.0
  0
LINE
  8
3
 62
3
 10
-279.779
 20
-233.208
 30
0.0
 11
-279.922
 21
-233.494
 31
0.0
  0
LINE
  8
3
 62
3
 10
-279.922
 20
-233.494
 30
0.0
 11
-280.351
 21
-233.637
 31
0.0
  0
LINE
  8
3
 62
3
 10
-280.351
 20
-233.637
 30
0.0
 11
-280.779
 21
-233.637
 31
0.0
  0
LINE
  8
3
 62
3
 10
-280.779
 20
-233.637
 30
0.0
 11
-281.208
 21
-233.494
 31
0.0
  0
LINE
  8
3
 62
3
 10
-281.208
 20
-233.494
 30
0.0
 11
-281.351
 21
-233.208
 31
0.0
  0
LINE
  8
3
 62
3
 10
-282.351
 20
-233.208
 30
0.0
 11
-282.351
 21
-232.065
 31
0.0
  0
LINE
  8
3
 62
3
 10
-282.351
 20
-231.637
 30
0.0
 11
-282.351
 21
-232.065
 31
0.0
  0
LINE
  8
3
 62
3
 10
-282.351
 20
-232.065
 30
0.0
 11
-282.636
 21
-231.78
 31
0.0
  0
LINE
  8
3
 62
3
 10
-282.636
 20
-231.78
 30
0.0
 11
-282.922
 21
-231.637
 31
0.0
  0
LINE
  8
3
 62
3
 10
-282.922
 20
-231.637
 30
0.0
 11
-283.351
 21
-231.637
 31
0.0
  0
LINE
  8
3
 62
3
 10
-283.351
 20
-231.637
 30
0.0
 11
-283.636
 21
-231.78
 31
0.0
  0
LINE
  8
3
 62
3
 10
-283.636
 20
-231.78
 30
0.0
 11
-283.922
 21
-232.065
 31
0.0
  0
LINE
  8
3
 62
3
 10
-283.922
 20
-232.065
 30
0.0
 11
-284.065
 21
-232.494
 31
0.0
  0
LINE
  8
3
 62
3
 10
-284.065
 20
-232.494
 30
0.0
 11
-284.065
 21
-232.78
 31
0.0
  0
LINE
  8
3
 62
3
 10
-284.065
 20
-232.78
 30
0.0
 11
-283.922
 21
-233.208
 31
0.0
  0
LINE
  8
3
 62
3
 10
-283.922
 20
-233.208
 30
0.0
 11
-283.636
 21
-233.494
 31
0.0
  0
LINE
  8
3
 62
3
 10
-283.636
 20
-233.494
 30
0.0
 11
-283.351
 21
-233.637
 31
0.0
  0
LINE
  8
3
 62
3
 10
-283.351
 20
-233.637
 30
0.0
 11
-282.922
 21
-233.637
 31
0.0
  0
LINE
  8
3
 62
3
 10
-282.922
 20
-233.637
 30
0.0
 11
-282.636
 21
-233.494
 31
0.0
  0
LINE
  8
3
 62
3
 10
-282.636
 20
-233.494
 30
0.0
 11
-282.351
 21
-233.208
 31
0.0
  0
LINE
  8
3
 62
3
 10
-282.351
 20
-233.208
 30
0.0
 11
-282.351
 21
-233.637
 31
0.0
  0
LINE
  8
3
 62
3
 10
-284.922
 20
-233.208
 30
0.0
 11
-285.208
 21
-233.494
 31
0.0
  0
LINE
  8
3
 62
3
 10
-285.208
 20
-233.494
 30
0.0
 11
-285.494
 21
-233.637
 31
0.0
  0
LINE
  8
3
 62
3
 10
-285.494
 20
-233.637
 30
0.0
 11
-285.922
 21
-233.637
 31
0.0
  0
LINE
  8
3
 62
3
 10
-285.922
 20
-233.637
 30
0.0
 11
-286.208
 21
-233.494
 31
0.0
  0
LINE
  8
3
 62
3
 10
-286.208
 20
-233.494
 30
0.0
 11
-286.494
 21
-233.208
 31
0.0
  0
LINE
  8
3
 62
3
 10
-286.494
 20
-233.208
 30
0.0
 11
-286.636
 21
-232.78
 31
0.0
  0
LINE
  8
3
 62
3
 10
-286.636
 20
-232.78
 30
0.0
 11
-286.636
 21
-232.494
 31
0.0
  0
LINE
  8
3
 62
3
 10
-286.636
 20
-232.494
 30
0.0
 11
-286.494
 21
-232.065
 31
0.0
  0
LINE
  8
3
 62
3
 10
-286.494
 20
-232.065
 30
0.0
 11
-286.208
 21
-231.78
 31
0.0
  0
LINE
  8
3
 62
3
 10
-286.208
 20
-231.78
 30
0.0
 11
-285.922
 21
-231.637
 31
0.0
  0
LINE
  8
3
 62
3
 10
-285.922
 20
-231.637
 30
0.0
 11
-285.494
 21
-231.637
 31
0.0
  0
LINE
  8
3
 62
3
 10
-285.494
 20
-231.637
 30
0.0
 11
-285.208
 21
-231.78
 31
0.0
  0
LINE
  8
3
 62
3
 10
-285.208
 20
-231.78
 30
0.0
 11
-285.065
 21
-231.922
 31
0.0
  0
LINE
  8
3
 62
3
 10
-285.065
 20
-231.922
 30
0.0
 11
-284.922
 21
-232.208
 31
0.0
  0
LINE
  8
3
 62
3
 10
-284.922
 20
-232.208
 30
0.0
 11
-284.922
 21
-232.494
 31
0.0
  0
LINE
  8
3
 62
3
 10
-284.922
 20
-232.494
 30
0.0
 11
-286.636
 21
-232.494
 31
0.0
  0
LINE
  8
3
 62
3
 10
-287.779
 20
-233.637
 30
0.0
 11
-287.779
 21
-230.637
 31
0.0
  0
LINE
  8
3
 62
3
 10
-287.779
 20
-230.637
 30
0.0
 11
-288.922
 21
-233.637
 31
0.0
  0
LINE
  8
3
 62
3
 10
-288.922
 20
-233.637
 30
0.0
 11
-290.065
 21
-230.637
 31
0.0
  0
LINE
  8
3
 62
3
 10
-290.065
 20
-230.637
 30
0.0
 11
-290.065
 21
-233.637
 31
0.0
  0
LINE
  8
3
 62
3
 10
-284.065
 20
-237.637
 30
0.0
 11
-270.065
 21
-237.637
 31
0.0
  0
LINE
  8
3
 62
3
 10
-270.065
 20
-237.637
 30
0.0
 11
-270.065
 21
-257.637
 31
0.0
  0
LINE
  8
3
 62
3
 10
-270.065
 20
-257.637
 30
0.0
 11
-290.065
 21
-257.637
 31
0.0
  0
LINE
  8
3
 62
3
 10
-290.065
 20
-257.637
 30
0.0
 11
-290.065
 21
-237.637
 31
0.0
  0
LINE
  8
3
 62
3
 10
-290.065
 20
-237.637
 30
0.0
 11
-284.065
 21
-237.637
 31
0.0
  0
LINE
  8
3
 62
3
 10
-278.922
 20
-231.637
 30
0.0
 11
-278.922
 21
-233.065
 31
0.0
  0
LINE
  8
3
 62
3
 10
-278.922
 20
-233.065
 30
0.0
 11
-278.779
 21
-233.494
 31
0.0
  0
LINE
  8
3
 62
3
 10
-278.779
 20
-233.494
 30
0.0
 11
-278.494
 21
-233.637
 31
0.0
  0
LINE
  8
3
 62
3
 10
-278.494
 20
-233.637
 30
0.0
 11
-278.065
 21
-233.637
 31
0.0
  0
LINE
  8
3
 62
3
 10
-278.065
 20
-233.637
 30
0.0
 11
-277.779
 21
-233.494
 31
0.0
  0
LINE
  8
3
 62
3
 10
-277.779
 20
-233.494
 30
0.0
 11
-277.351
 21
-233.065
 31
0.0
  0
LINE
  8
3
 62
3
 10
-277.351
 20
-233.065
 30
0.0
 11
-277.351
 21
-233.637
 31
0.0
  0
LINE
  8
3
 62
3
 10
-277.351
 20
-233.065
 30
0.0
 11
-277.351
 21
-231.637
 31
0.0
  0
LINE
  8
3
 62
3
 10
-276.208
 20
-233.637
 30
0.0
 11
-276.208
 21
-232.494
 31
0.0
  0
LINE
  8
3
 62
3
 10
-276.208
 20
-231.637
 30
0.0
 11
-276.208
 21
-232.494
 31
0.0
  0
LINE
  8
3
 62
3
 10
-276.208
 20
-232.494
 30
0.0
 11
-276.065
 21
-232.065
 31
0.0
  0
LINE
  8
3
 62
3
 10
-276.065
 20
-232.065
 30
0.0
 11
-275.779
 21
-231.78
 31
0.0
  0
LINE
  8
3
 62
3
 10
-275.779
 20
-231.78
 30
0.0
 11
-275.494
 21
-231.637
 31
0.0
  0
LINE
  8
3
 62
3
 10
-275.494
 20
-231.637
 30
0.0
 11
-275.065
 21
-231.637
 31
0.0
  0
LINE
  8
3
 62
3
 10
-274.351
 20
-232.494
 30
0.0
 11
-272.636
 21
-232.494
 31
0.0
  0
LINE
  8
3
 62
3
 10
-272.636
 20
-232.494
 30
0.0
 11
-272.636
 21
-232.208
 31
0.0
  0
LINE
  8
3
 62
3
 10
-272.636
 20
-232.208
 30
0.0
 11
-272.779
 21
-231.922
 31
0.0
  0
LINE
  8
3
 62
3
 10
-272.779
 20
-231.922
 30
0.0
 11
-272.922
 21
-231.78
 31
0.0
  0
LINE
  8
3
 62
3
 10
-272.922
 20
-231.78
 30
0.0
 11
-273.208
 21
-231.637
 31
0.0
  0
LINE
  8
3
 62
3
 10
-273.208
 20
-231.637
 30
0.0
 11
-273.636
 21
-231.637
 31
0.0
  0
LINE
  8
3
 62
3
 10
-273.636
 20
-231.637
 30
0.0
 11
-273.922
 21
-231.78
 31
0.0
  0
LINE
  8
3
 62
3
 10
-273.922
 20
-231.78
 30
0.0
 11
-274.208
 21
-232.065
 31
0.0
  0
LINE
  8
3
 62
3
 10
-274.208
 20
-232.065
 30
0.0
 11
-274.351
 21
-232.494
 31
0.0
  0
LINE
  8
3
 62
3
 10
-274.351
 20
-232.494
 30
0.0
 11
-274.351
 21
-232.78
 31
0.0
  0
LINE
  8
3
 62
3
 10
-274.351
 20
-232.78
 30
0.0
 11
-274.208
 21
-233.208
 31
0.0
  0
LINE
  8
3
 62
3
 10
-274.208
 20
-233.208
 30
0.0
 11
-273.922
 21
-233.494
 31
0.0
  0
LINE
  8
3
 62
3
 10
-273.922
 20
-233.494
 30
0.0
 11
-273.636
 21
-233.637
 31
0.0
  0
LINE
  8
3
 62
3
 10
-273.636
 20
-233.637
 30
0.0
 11
-273.208
 21
-233.637
 31
0.0
  0
LINE
  8
3
 62
3
 10
-273.208
 20
-233.637
 30
0.0
 11
-272.922
 21
-233.494
 31
0.0
  0
LINE
  8
3
 62
3
 10
-272.922
 20
-233.494
 30
0.0
 11
-272.636
 21
-233.208
 31
0.0
  0
LINE
  8
3
 62
3
 10
-267.922
 20
-233.637
 30
0.0
 11
-268.208
 21
-233.637
 31
0.0
  0
LINE
  8
3
 62
3
 10
-268.208
 20
-233.637
 30
0.0
 11
-268.494
 21
-233.494
 31
0.0
  0
LINE
  8
3
 62
3
 10
-268.494
 20
-233.494
 30
0.0
 11
-268.636
 21
-233.065
 31
0.0
  0
LINE
  8
3
 62
3
 10
-268.636
 20
-233.065
 30
0.0
 11
-268.636
 21
-231.637
 31
0.0
  0
LINE
  8
3
 62
3
 10
-268.636
 20
-231.637
 30
0.0
 11
-269.065
 21
-231.637
 31
0.0
  0
LINE
  8
3
 62
3
 10
-268.636
 20
-230.637
 30
0.0
 11
-268.636
 21
-231.637
 31
0.0
  0
LINE
  8
3
 62
3
 10
-268.636
 20
-231.637
 30
0.0
 11
-268.065
 21
-231.637
 31
0.0
  0
LINE
  8
3
 62
3
 10
-267.065
 20
-232.494
 30
0.0
 11
-265.351
 21
-232.494
 31
0.0
  0
LINE
  8
3
 62
3
 10
-265.351
 20
-232.494
 30
0.0
 11
-265.351
 21
-232.208
 31
0.0
  0
LINE
  8
3
 62
3
 10
-265.351
 20
-232.208
 30
0.0
 11
-265.494
 21
-231.922
 31
0.0
  0
LINE
  8
3
 62
3
 10
-265.494
 20
-231.922
 30
0.0
 11
-265.636
 21
-231.78
 31
0.0
  0
LINE
  8
3
 62
3
 10
-265.636
 20
-231.78
 30
0.0
 11
-265.922
 21
-231.637
 31
0.0
  0
LINE
  8
3
 62
3
 10
-265.922
 20
-231.637
 30
0.0
 11
-266.351
 21
-231.637
 31
0.0
  0
LINE
  8
3
 62
3
 10
-266.351
 20
-231.637
 30
0.0
 11
-266.636
 21
-231.78
 31
0.0
  0
LINE
  8
3
 62
3
 10
-266.636
 20
-231.78
 30
0.0
 11
-266.922
 21
-232.065
 31
0.0
  0
LINE
  8
3
 62
3
 10
-266.922
 20
-232.065
 30
0.0
 11
-267.065
 21
-232.494
 31
0.0
  0
LINE
  8
3
 62
3
 10
-267.065
 20
-232.494
 30
0.0
 11
-267.065
 21
-232.78
 31
0.0
  0
LINE
  8
3
 62
3
 10
-267.065
 20
-232.78
 30
0.0
 11
-266.922
 21
-233.208
 31
0.0
  0
LINE
  8
3
 62
3
 10
-266.922
 20
-233.208
 30
0.0
 11
-266.636
 21
-233.494
 31
0.0
  0
LINE
  8
3
 62
3
 10
-266.636
 20
-233.494
 30
0.0
 11
-266.351
 21
-233.637
 31
0.0
  0
LINE
  8
3
 62
3
 10
-266.351
 20
-233.637
 30
0.0
 11
-265.922
 21
-233.637
 31
0.0
  0
LINE
  8
3
 62
3
 10
-265.922
 20
-233.637
 30
0.0
 11
-265.636
 21
-233.494
 31
0.0
  0
LINE
  8
3
 62
3
 10
-265.636
 20
-233.494
 30
0.0
 11
-265.351
 21
-233.208
 31
0.0
  0
LINE
  8
3
 62
3
 10
-264.494
 20
-233.208
 30
0.0
 11
-264.351
 21
-233.494
 31
0.0
  0
LINE
  8
3
 62
3
 10
-264.351
 20
-233.494
 30
0.0
 11
-263.922
 21
-233.637
 31
0.0
  0
LINE
  8
3
 62
3
 10
-263.922
 20
-233.637
 30
0.0
 11
-263.494
 21
-233.637
 31
0.0
  0
LINE
  8
3
 62
3
 10
-263.494
 20
-233.637
 30
0.0
 11
-263.065
 21
-233.494
 31
0.0
  0
LINE
  8
3
 62
3
 10
-263.065
 20
-233.494
 30
0.0
 11
-262.922
 21
-233.208
 31
0.0
  0
LINE
  8
3
 62
3
 10
-262.922
 20
-233.208
 30
0.0
 11
-262.922
 21
-233.065
 31
0.0
  0
LINE
  8
3
 62
3
 10
-262.922
 20
-233.065
 30
0.0
 11
-263.065
 21
-232.78
 31
0.0
  0
LINE
  8
3
 62
3
 10
-263.065
 20
-232.78
 30
0.0
 11
-263.351
 21
-232.637
 31
0.0
  0
LINE
  8
3
 62
3
 10
-263.351
 20
-232.637
 30
0.0
 11
-264.065
 21
-232.494
 31
0.0
  0
LINE
  8
3
 62
3
 10
-264.065
 20
-232.494
 30
0.0
 11
-264.351
 21
-232.351
 31
0.0
  0
LINE
  8
3
 62
3
 10
-264.351
 20
-232.351
 30
0.0
 11
-264.494
 21
-232.065
 31
0.0
  0
LINE
  8
3
 62
3
 10
-264.494
 20
-232.065
 30
0.0
 11
-264.351
 21
-231.78
 31
0.0
  0
LINE
  8
3
 62
3
 10
-264.351
 20
-231.78
 30
0.0
 11
-263.922
 21
-231.637
 31
0.0
  0
LINE
  8
3
 62
3
 10
-263.922
 20
-231.637
 30
0.0
 11
-263.494
 21
-231.637
 31
0.0
  0
LINE
  8
3
 62
3
 10
-263.494
 20
-231.637
 30
0.0
 11
-263.065
 21
-231.78
 31
0.0
  0
LINE
  8
3
 62
3
 10
-263.065
 20
-231.78
 30
0.0
 11
-262.922
 21
-232.065
 31
0.0
  0
LINE
  8
3
 62
3
 10
-260.922
 20
-233.637
 30
0.0
 11
-261.208
 21
-233.637
 31
0.0
  0
LINE
  8
3
 62
3
 10
-261.208
 20
-233.637
 30
0.0
 11
-261.494
 21
-233.494
 31
0.0
  0
LINE
  8
3
 62
3
 10
-261.494
 20
-233.494
 30
0.0
 11
-261.636
 21
-233.065
 31
0.0
  0
LINE
  8
3
 62
3
 10
-261.636
 20
-233.065
 30
0.0
 11
-261.636
 21
-231.637
 31
0.0
  0
LINE
  8
3
 62
3
 10
-261.636
 20
-231.637
 30
0.0
 11
-262.065
 21
-231.637
 31
0.0
  0
LINE
  8
3
 62
3
 10
-261.636
 20
-230.637
 30
0.0
 11
-261.636
 21
-231.637
 31
0.0
  0
LINE
  8
3
 62
3
 10
-261.636
 20
-231.637
 30
0.0
 11
-261.065
 21
-231.637
 31
0.0
  0
LINE
  8
3
 62
3
 10
-237.208
 20
-231.637
 30
0.0
 11
-237.208
 21
-232.208
 31
0.0
  0
LINE
  8
3
 62
3
 10
-237.208
 20
-232.208
 30
0.0
 11
-236.779
 21
-231.78
 31
0.0
  0
LINE
  8
3
 62
3
 10
-236.779
 20
-231.78
 30
0.0
 11
-236.494
 21
-231.637
 31
0.0
  0
LINE
  8
3
 62
3
 10
-236.494
 20
-231.637
 30
0.0
 11
-236.065
 21
-231.637
 31
0.0
  0
LINE
  8
3
 62
3
 10
-236.065
 20
-231.637
 30
0.0
 11
-235.779
 21
-231.78
 31
0.0
  0
LINE
  8
3
 62
3
 10
-235.779
 20
-231.78
 30
0.0
 11
-235.636
 21
-232.208
 31
0.0
  0
LINE
  8
3
 62
3
 10
-235.636
 20
-232.208
 30
0.0
 11
-235.208
 21
-231.78
 31
0.0
  0
LINE
  8
3
 62
3
 10
-235.208
 20
-231.78
 30
0.0
 11
-234.922
 21
-231.637
 31
0.0
  0
LINE
  8
3
 62
3
 10
-234.922
 20
-231.637
 30
0.0
 11
-234.494
 21
-231.637
 31
0.0
  0
LINE
  8
3
 62
3
 10
-234.494
 20
-231.637
 30
0.0
 11
-234.208
 21
-231.78
 31
0.0
  0
LINE
  8
3
 62
3
 10
-234.208
 20
-231.78
 30
0.0
 11
-234.065
 21
-232.208
 31
0.0
  0
LINE
  8
3
 62
3
 10
-234.065
 20
-232.208
 30
0.0
 11
-234.065
 21
-233.637
 31
0.0
  0
LINE
  8
3
 62
3
 10
-235.636
 20
-233.637
 30
0.0
 11
-235.636
 21
-232.208
 31
0.0
  0
LINE
  8
3
 62
3
 10
-237.208
 20
-232.208
 30
0.0
 11
-237.208
 21
-233.637
 31
0.0
  0
LINE
  8
3
 62
3
 10
-232.922
 20
-234.637
 30
0.0
 11
-232.636
 21
-234.351
 31
0.0
  0
LINE
  8
3
 62
3
 10
-232.636
 20
-234.351
 30
0.0
 11
-232.351
 21
-233.922
 31
0.0
  0
LINE
  8
3
 62
3
 10
-232.351
 20
-233.922
 30
0.0
 11
-232.065
 21
-233.351
 31
0.0
  0
LINE
  8
3
 62
3
 10
-232.065
 20
-233.351
 30
0.0
 11
-231.922
 21
-232.637
 31
0.0
  0
LINE
  8
3
 62
3
 10
-231.922
 20
-232.637
 30
0.0
 11
-231.922
 21
-232.065
 31
0.0
  0
LINE
  8
3
 62
3
 10
-231.922
 20
-232.065
 30
0.0
 11
-232.065
 21
-231.351
 31
0.0
  0
LINE
  8
3
 62
3
 10
-232.065
 20
-231.351
 30
0.0
 11
-232.351
 21
-230.78
 31
0.0
  0
LINE
  8
3
 62
3
 10
-232.351
 20
-230.78
 30
0.0
 11
-232.636
 21
-230.351
 31
0.0
  0
LINE
  8
3
 62
3
 10
-232.636
 20
-230.351
 30
0.0
 11
-232.922
 21
-230.065
 31
0.0
  0
LINE
  8
3
 62
3
 10
70.56
 20
-188.78
 30
0.0
 11
70.798
 21
-189.018
 31
0.0
  0
LINE
  8
3
 62
3
 10
70.798
 20
-189.018
 30
0.0
 11
71.155
 21
-189.137
 31
0.0
  0
LINE
  8
3
 62
3
 10
71.155
 20
-189.137
 30
0.0
 11
71.631
 21
-189.137
 31
0.0
  0
LINE
  8
3
 62
3
 10
71.631
 20
-189.137
 30
0.0
 11
71.988
 21
-189.018
 31
0.0
  0
LINE
  8
3
 62
3
 10
71.988
 20
-189.018
 30
0.0
 11
72.226
 21
-188.78
 31
0.0
  0
LINE
  8
3
 62
3
 10
72.226
 20
-188.78
 30
0.0
 11
72.226
 21
-188.422
 31
0.0
  0
LINE
  8
3
 62
3
 10
72.226
 20
-188.422
 30
0.0
 11
72.107
 21
-188.184
 31
0.0
  0
LINE
  8
3
 62
3
 10
72.107
 20
-188.184
 30
0.0
 11
71.988
 21
-188.065
 31
0.0
  0
LINE
  8
3
 62
3
 10
71.988
 20
-188.065
 30
0.0
 11
71.75
 21
-187.946
 31
0.0
  0
LINE
  8
3
 62
3
 10
71.75
 20
-187.946
 30
0.0
 11
71.036
 21
-187.708
 31
0.0
  0
LINE
  8
3
 62
3
 10
71.036
 20
-187.708
 30
0.0
 11
70.798
 21
-187.589
 31
0.0
  0
LINE
  8
3
 62
3
 10
70.798
 20
-187.589
 30
0.0
 11
70.679
 21
-187.47
 31
0.0
  0
LINE
  8
3
 62
3
 10
70.679
 20
-187.47
 30
0.0
 11
70.56
 21
-187.232
 31
0.0
  0
LINE
  8
3
 62
3
 10
70.56
 20
-187.232
 30
0.0
 11
70.56
 21
-186.994
 31
0.0
  0
LINE
  8
3
 62
3
 10
70.56
 20
-186.994
 30
0.0
 11
70.798
 21
-186.756
 31
0.0
  0
LINE
  8
3
 62
3
 10
70.798
 20
-186.756
 30
0.0
 11
71.155
 21
-186.637
 31
0.0
  0
LINE
  8
3
 62
3
 10
71.155
 20
-186.637
 30
0.0
 11
71.631
 21
-186.637
 31
0.0
  0
LINE
  8
3
 62
3
 10
71.631
 20
-186.637
 30
0.0
 11
71.988
 21
-186.756
 31
0.0
  0
LINE
  8
3
 62
3
 10
71.988
 20
-186.756
 30
0.0
 11
72.226
 21
-186.994
 31
0.0
  0
LINE
  8
3
 62
3
 10
72.94
 20
-188.065
 30
0.0
 11
75.083
 21
-188.065
 31
0.0
  0
LINE
  8
3
 62
3
 10
76.036
 20
-187.827
 30
0.0
 11
76.036
 21
-186.637
 31
0.0
  0
LINE
  8
3
 62
3
 10
76.036
 20
-186.637
 30
0.0
 11
77.107
 21
-186.637
 31
0.0
  0
LINE
  8
3
 62
3
 10
77.107
 20
-186.637
 30
0.0
 11
77.464
 21
-186.756
 31
0.0
  0
LINE
  8
3
 62
3
 10
77.464
 20
-186.756
 30
0.0
 11
77.583
 21
-186.875
 31
0.0
  0
LINE
  8
3
 62
3
 10
77.583
 20
-186.875
 30
0.0
 11
77.702
 21
-187.113
 31
0.0
  0
LINE
  8
3
 62
3
 10
77.702
 20
-187.113
 30
0.0
 11
77.702
 21
-187.351
 31
0.0
  0
LINE
  8
3
 62
3
 10
77.702
 20
-187.351
 30
0.0
 11
77.583
 21
-187.589
 31
0.0
  0
LINE
  8
3
 62
3
 10
77.583
 20
-187.589
 30
0.0
 11
77.464
 21
-187.708
 31
0.0
  0
LINE
  8
3
 62
3
 10
77.464
 20
-187.708
 30
0.0
 11
77.107
 21
-187.827
 31
0.0
  0
LINE
  8
3
 62
3
 10
77.107
 20
-187.827
 30
0.0
 11
77.464
 21
-187.946
 31
0.0
  0
LINE
  8
3
 62
3
 10
77.464
 20
-187.946
 30
0.0
 11
77.583
 21
-188.065
 31
0.0
  0
LINE
  8
3
 62
3
 10
77.583
 20
-188.065
 30
0.0
 11
77.702
 21
-188.303
 31
0.0
  0
LINE
  8
3
 62
3
 10
77.702
 20
-188.303
 30
0.0
 11
77.702
 21
-188.661
 31
0.0
  0
LINE
  8
3
 62
3
 10
77.702
 20
-188.661
 30
0.0
 11
77.583
 21
-188.899
 31
0.0
  0
LINE
  8
3
 62
3
 10
77.583
 20
-188.899
 30
0.0
 11
77.464
 21
-189.018
 31
0.0
  0
LINE
  8
3
 62
3
 10
77.464
 20
-189.018
 30
0.0
 11
77.107
 21
-189.137
 31
0.0
  0
LINE
  8
3
 62
3
 10
77.107
 20
-189.137
 30
0.0
 11
76.036
 21
-189.137
 31
0.0
  0
LINE
  8
3
 62
3
 10
76.036
 20
-189.137
 30
0.0
 11
76.036
 21
-187.827
 31
0.0
  0
LINE
  8
3
 62
3
 10
76.036
 20
-187.827
 30
0.0
 11
77.107
 21
-187.827
 31
0.0
  0
LINE
  8
3
 62
3
 10
80.202
 20
-186.994
 30
0.0
 11
80.25
 21
-187.089
 31
0.0
  0
LINE
  8
3
 62
3
 10
80.25
 20
-187.089
 30
0.0
 11
80.321
 21
-187.232
 31
0.0
  0
LINE
  8
3
 62
3
 10
80.321
 20
-187.232
 30
0.0
 11
80.44
 21
-187.589
 31
0.0
  0
LINE
  8
3
 62
3
 10
80.44
 20
-187.589
 30
0.0
 11
80.44
 21
-188.184
 31
0.0
  0
LINE
  8
3
 62
3
 10
80.44
 20
-188.184
 30
0.0
 11
80.321
 21
-188.542
 31
0.0
  0
LINE
  8
3
 62
3
 10
80.321
 20
-188.542
 30
0.0
 11
80.202
 21
-188.78
 31
0.0
  0
LINE
  8
3
 62
3
 10
80.202
 20
-188.78
 30
0.0
 11
79.964
 21
-189.018
 31
0.0
  0
LINE
  8
3
 62
3
 10
79.964
 20
-189.018
 30
0.0
 11
79.726
 21
-189.137
 31
0.0
  0
LINE
  8
3
 62
3
 10
79.726
 20
-189.137
 30
0.0
 11
79.25
 21
-189.137
 31
0.0
  0
LINE
  8
3
 62
3
 10
79.25
 20
-189.137
 30
0.0
 11
79.012
 21
-189.018
 31
0.0
  0
LINE
  8
3
 62
3
 10
79.012
 20
-189.018
 30
0.0
 11
78.774
 21
-188.78
 31
0.0
  0
LINE
  8
3
 62
3
 10
78.774
 20
-188.78
 30
0.0
 11
78.655
 21
-188.542
 31
0.0
  0
LINE
  8
3
 62
3
 10
78.655
 20
-188.542
 30
0.0
 11
78.536
 21
-188.184
 31
0.0
  0
LINE
  8
3
 62
3
 10
78.536
 20
-188.184
 30
0.0
 11
78.536
 21
-187.589
 31
0.0
  0
LINE
  8
3
 62
3
 10
78.536
 20
-187.589
 30
0.0
 11
78.655
 21
-187.232
 31
0.0
  0
LINE
  8
3
 62
3
 10
78.655
 20
-187.232
 30
0.0
 11
78.774
 21
-186.994
 31
0.0
  0
LINE
  8
3
 62
3
 10
78.774
 20
-186.994
 30
0.0
 11
79.012
 21
-186.756
 31
0.0
  0
LINE
  8
3
 62
3
 10
79.012
 20
-186.756
 30
0.0
 11
79.25
 21
-186.637
 31
0.0
  0
LINE
  8
3
 62
3
 10
79.25
 20
-186.637
 30
0.0
 11
79.726
 21
-186.637
 31
0.0
  0
LINE
  8
3
 62
3
 10
79.726
 20
-186.637
 30
0.0
 11
79.964
 21
-186.756
 31
0.0
  0
LINE
  8
3
 62
3
 10
79.964
 20
-186.756
 30
0.0
 11
80.202
 21
-186.994
 31
0.0
  0
LINE
  8
3
 62
3
 10
81.155
 20
-186.637
 30
0.0
 11
81.988
 21
-187.887
 31
0.0
  0
LINE
  8
3
 62
3
 10
82.821
 20
-186.637
 30
0.0
 11
81.988
 21
-187.887
 31
0.0
  0
LINE
  8
3
 62
3
 10
81.155
 20
-189.137
 30
0.0
 11
81.988
 21
-187.887
 31
0.0
  0
LINE
  8
3
 62
3
 10
81.988
 20
-187.887
 30
0.0
 11
82.821
 21
-189.137
 31
0.0
  0
LINE
  8
3
 62
3
 10
83.536
 20
-188.065
 30
0.0
 11
85.679
 21
-188.065
 31
0.0
  0
LINE
  8
3
 62
3
 10
87.821
 20
-188.303
 30
0.0
 11
86.631
 21
-188.303
 31
0.0
  0
LINE
  8
3
 62
3
 10
86.631
 20
-188.303
 30
0.0
 11
87.821
 21
-186.637
 31
0.0
  0
LINE
  8
3
 62
3
 10
87.821
 20
-186.637
 30
0.0
 11
87.821
 21
-188.303
 31
0.0
  0
LINE
  8
3
 62
3
 10
87.821
 20
-189.137
 30
0.0
 11
87.821
 21
-188.303
 31
0.0
  0
LINE
  8
3
 62
3
 10
87.821
 20
-188.303
 30
0.0
 11
88.417
 21
-188.303
 31
0.0
  0
LINE
  8
3
 62
3
 10
89.012
 20
-188.661
 30
0.0
 11
89.131
 21
-188.899
 31
0.0
  0
LINE
  8
3
 62
3
 10
89.131
 20
-188.899
 30
0.0
 11
89.25
 21
-189.018
 31
0.0
  0
LINE
  8
3
 62
3
 10
89.25
 20
-189.018
 30
0.0
 11
89.607
 21
-189.137
 31
0.0
  0
LINE
  8
3
 62
3
 10
89.607
 20
-189.137
 30
0.0
 11
89.964
 21
-189.137
 31
0.0
  0
LINE
  8
3
 62
3
 10
89.964
 20
-189.137
 30
0.0
 11
90.321
 21
-189.018
 31
0.0
  0
LINE
  8
3
 62
3
 10
90.321
 20
-189.018
 30
0.0
 11
90.56
 21
-188.78
 31
0.0
  0
LINE
  8
3
 62
3
 10
90.56
 20
-188.78
 30
0.0
 11
90.679
 21
-188.422
 31
0.0
  0
LINE
  8
3
 62
3
 10
90.679
 20
-188.422
 30
0.0
 11
90.679
 21
-188.184
 31
0.0
  0
LINE
  8
3
 62
3
 10
90.679
 20
-188.184
 30
0.0
 11
90.56
 21
-187.827
 31
0.0
  0
LINE
  8
3
 62
3
 10
90.56
 20
-187.827
 30
0.0
 11
90.44
 21
-187.708
 31
0.0
  0
LINE
  8
3
 62
3
 10
90.44
 20
-187.708
 30
0.0
 11
90.202
 21
-187.589
 31
0.0
  0
LINE
  8
3
 62
3
 10
90.202
 20
-187.589
 30
0.0
 11
89.845
 21
-187.589
 31
0.0
  0
LINE
  8
3
 62
3
 10
89.845
 20
-187.589
 30
0.0
 11
90.56
 21
-186.637
 31
0.0
  0
LINE
  8
3
 62
3
 10
90.56
 20
-186.637
 30
0.0
 11
89.25
 21
-186.637
 31
0.0
  0
LINE
  8
3
 62
3
 10
91.512
 20
-187.232
 30
0.0
 11
91.512
 21
-187.113
 31
0.0
  0
LINE
  8
3
 62
3
 10
91.512
 20
-187.113
 30
0.0
 11
91.631
 21
-186.875
 31
0.0
  0
LINE
  8
3
 62
3
 10
91.631
 20
-186.875
 30
0.0
 11
91.75
 21
-186.756
 31
0.0
  0
LINE
  8
3
 62
3
 10
91.75
 20
-186.756
 30
0.0
 11
91.988
 21
-186.637
 31
0.0
  0
LINE
  8
3
 62
3
 10
91.988
 20
-186.637
 30
0.0
 11
92.464
 21
-186.637
 31
0.0
  0
LINE
  8
3
 62
3
 10
92.464
 20
-186.637
 30
0.0
 11
92.702
 21
-186.756
 31
0.0
  0
LINE
  8
3
 62
3
 10
92.702
 20
-186.756
 30
0.0
 11
92.821
 21
-186.875
 31
0.0
  0
LINE
  8
3
 62
3
 10
92.821
 20
-186.875
 30
0.0
 11
92.94
 21
-187.113
 31
0.0
  0
LINE
  8
3
 62
3
 10
92.94
 20
-187.113
 30
0.0
 11
92.94
 21
-187.351
 31
0.0
  0
LINE
  8
3
 62
3
 10
92.94
 20
-187.351
 30
0.0
 11
92.821
 21
-187.589
 31
0.0
  0
LINE
  8
3
 62
3
 10
92.821
 20
-187.589
 30
0.0
 11
92.583
 21
-187.946
 31
0.0
  0
LINE
  8
3
 62
3
 10
92.583
 20
-187.946
 30
0.0
 11
91.393
 21
-189.137
 31
0.0
  0
LINE
  8
3
 62
3
 10
91.393
 20
-189.137
 30
0.0
 11
93.06
 21
-189.137
 31
0.0
  0
LINE
  8
3
 62
3
 10
93.774
 20
-188.065
 30
0.0
 11
95.917
 21
-188.065
 31
0.0
  0
LINE
  8
3
 62
3
 10
98.655
 20
-188.542
 30
0.0
 11
98.536
 21
-188.78
 31
0.0
  0
LINE
  8
3
 62
3
 10
98.536
 20
-188.78
 30
0.0
 11
98.298
 21
-189.018
 31
0.0
  0
LINE
  8
3
 62
3
 10
98.298
 20
-189.018
 30
0.0
 11
98.06
 21
-189.137
 31
0.0
  0
LINE
  8
3
 62
3
 10
98.06
 20
-189.137
 30
0.0
 11
97.583
 21
-189.137
 31
0.0
  0
LINE
  8
3
 62
3
 10
97.583
 20
-189.137
 30
0.0
 11
97.345
 21
-189.018
 31
0.0
  0
LINE
  8
3
 62
3
 10
97.345
 20
-189.018
 30
0.0
 11
97.107
 21
-188.78
 31
0.0
  0
LINE
  8
3
 62
3
 10
97.107
 20
-188.78
 30
0.0
 11
96.988
 21
-188.542
 31
0.0
  0
LINE
  8
3
 62
3
 10
96.988
 20
-188.542
 30
0.0
 11
96.869
 21
-188.184
 31
0.0
  0
LINE
  8
3
 62
3
 10
96.869
 20
-188.184
 30
0.0
 11
96.869
 21
-187.589
 31
0.0
  0
LINE
  8
3
 62
3
 10
96.869
 20
-187.589
 30
0.0
 11
96.988
 21
-187.232
 31
0.0
  0
LINE
  8
3
 62
3
 10
96.988
 20
-187.232
 30
0.0
 11
97.107
 21
-186.994
 31
0.0
  0
LINE
  8
3
 62
3
 10
97.107
 20
-186.994
 30
0.0
 11
97.345
 21
-186.756
 31
0.0
  0
LINE
  8
3
 62
3
 10
97.345
 20
-186.756
 30
0.0
 11
97.583
 21
-186.637
 31
0.0
  0
LINE
  8
3
 62
3
 10
97.583
 20
-186.637
 30
0.0
 11
98.06
 21
-186.637
 31
0.0
  0
LINE
  8
3
 62
3
 10
98.06
 20
-186.637
 30
0.0
 11
98.298
 21
-186.756
 31
0.0
  0
LINE
  8
3
 62
3
 10
98.298
 20
-186.756
 30
0.0
 11
98.536
 21
-186.994
 31
0.0
  0
LINE
  8
3
 62
3
 10
98.536
 20
-186.994
 30
0.0
 11
98.655
 21
-187.232
 31
0.0
  0
LINE
  8
3
 62
3
 10
99.369
 20
-187.827
 30
0.0
 11
99.369
 21
-186.637
 31
0.0
  0
LINE
  8
3
 62
3
 10
99.369
 20
-186.637
 30
0.0
 11
100.44
 21
-186.637
 31
0.0
  0
LINE
  8
3
 62
3
 10
100.44
 20
-186.637
 30
0.0
 11
100.798
 21
-186.756
 31
0.0
  0
LINE
  8
3
 62
3
 10
100.798
 20
-186.756
 30
0.0
 11
100.917
 21
-186.875
 31
0.0
  0
LINE
  8
3
 62
3
 10
100.917
 20
-186.875
 30
0.0
 11
101.036
 21
-187.113
 31
0.0
  0
LINE
  8
3
 62
3
 10
101.036
 20
-187.113
 30
0.0
 11
101.036
 21
-187.351
 31
0.0
  0
LINE
  8
3
 62
3
 10
101.036
 20
-187.351
 30
0.0
 11
100.917
 21
-187.589
 31
0.0
  0
LINE
  8
3
 62
3
 10
100.917
 20
-187.589
 30
0.0
 11
100.798
 21
-187.708
 31
0.0
  0
LINE
  8
3
 62
3
 10
100.798
 20
-187.708
 30
0.0
 11
100.44
 21
-187.827
 31
0.0
  0
LINE
  8
3
 62
3
 10
100.44
 20
-187.827
 30
0.0
 11
100.798
 21
-187.946
 31
0.0
  0
LINE
  8
3
 62
3
 10
100.798
 20
-187.946
 30
0.0
 11
100.917
 21
-188.065
 31
0.0
  0
LINE
  8
3
 62
3
 10
100.917
 20
-188.065
 30
0.0
 11
101.036
 21
-188.303
 31
0.0
  0
LINE
  8
3
 62
3
 10
101.036
 20
-188.303
 30
0.0
 11
101.036
 21
-188.661
 31
0.0
  0
LINE
  8
3
 62
3
 10
101.036
 20
-188.661
 30
0.0
 11
100.917
 21
-188.899
 31
0.0
  0
LINE
  8
3
 62
3
 10
100.917
 20
-188.899
 30
0.0
 11
100.798
 21
-189.018
 31
0.0
  0
LINE
  8
3
 62
3
 10
100.798
 20
-189.018
 30
0.0
 11
100.44
 21
-189.137
 31
0.0
  0
LINE
  8
3
 62
3
 10
100.44
 20
-189.137
 30
0.0
 11
99.369
 21
-189.137
 31
0.0
  0
LINE
  8
3
 62
3
 10
99.369
 20
-189.137
 30
0.0
 11
99.369
 21
-187.827
 31
0.0
  0
LINE
  8
3
 62
3
 10
99.369
 20
-187.827
 30
0.0
 11
100.44
 21
-187.827
 31
0.0
  0
LINE
  8
3
 62
3
 10
101.869
 20
-188.065
 30
0.0
 11
104.012
 21
-188.065
 31
0.0
  0
LINE
  8
3
 62
3
 10
105.798
 20
-189.137
 30
0.0
 11
105.798
 21
-186.637
 31
0.0
  0
LINE
  8
3
 62
3
 10
105.798
 20
-186.637
 30
0.0
 11
104.964
 21
-186.637
 31
0.0
  0
LINE
  8
3
 62
3
 10
105.798
 20
-186.637
 30
0.0
 11
106.631
 21
-186.637
 31
0.0
  0
LINE
  8
3
 62
3
 10
107.107
 20
-187.946
 30
0.0
 11
108.179
 21
-187.946
 31
0.0
  0
LINE
  8
3
 62
3
 10
108.179
 20
-187.946
 30
0.0
 11
108.536
 21
-187.827
 31
0.0
  0
LINE
  8
3
 62
3
 10
108.536
 20
-187.827
 30
0.0
 11
108.655
 21
-187.708
 31
0.0
  0
LINE
  8
3
 62
3
 10
108.655
 20
-187.708
 30
0.0
 11
108.774
 21
-187.47
 31
0.0
  0
LINE
  8
3
 62
3
 10
108.774
 20
-187.47
 30
0.0
 11
108.774
 21
-187.113
 31
0.0
  0
LINE
  8
3
 62
3
 10
108.774
 20
-187.113
 30
0.0
 11
108.655
 21
-186.875
 31
0.0
  0
LINE
  8
3
 62
3
 10
108.655
 20
-186.875
 30
0.0
 11
108.536
 21
-186.756
 31
0.0
  0
LINE
  8
3
 62
3
 10
108.536
 20
-186.756
 30
0.0
 11
108.179
 21
-186.637
 31
0.0
  0
LINE
  8
3
 62
3
 10
108.179
 20
-186.637
 30
0.0
 11
107.107
 21
-186.637
 31
0.0
  0
LINE
  8
3
 62
3
 10
107.107
 20
-186.637
 30
0.0
 11
107.107
 21
-187.946
 31
0.0
  0
LINE
  8
3
 62
3
 10
107.107
 20
-187.946
 30
0.0
 11
107.107
 21
-189.137
 31
0.0
  0
LINE
  8
3
 62
3
 10
109.607
 20
-188.065
 30
0.0
 11
111.75
 21
-188.065
 31
0.0
  0
LINE
  8
3
 62
3
 10
112.702
 20
-186.637
 30
0.0
 11
113.655
 21
-189.137
 31
0.0
  0
LINE
  8
3
 62
3
 10
113.655
 20
-189.137
 30
0.0
 11
114.607
 21
-186.637
 31
0.0
  0
LINE
  8
3
 62
3
 10
115.083
 20
-187.113
 30
0.0
 11
115.321
 21
-186.994
 31
0.0
  0
LINE
  8
3
 62
3
 10
115.321
 20
-186.994
 30
0.0
 11
115.679
 21
-186.637
 31
0.0
  0
LINE
  8
3
 62
3
 10
115.679
 20
-186.637
 30
0.0
 11
115.679
 21
-189.137
 31
0.0
  0
LINE
  8
3
 62
3
 10
118.536
 20
-188.661
 30
0.0
 11
118.298
 21
-189.018
 31
0.0
  0
LINE
  8
3
 62
3
 10
118.298
 20
-189.018
 30
0.0
 11
117.94
 21
-189.137
 31
0.0
  0
LINE
  8
3
 62
3
 10
117.94
 20
-189.137
 30
0.0
 11
117.702
 21
-189.137
 31
0.0
  0
LINE
  8
3
 62
3
 10
117.702
 20
-189.137
 30
0.0
 11
117.345
 21
-189.018
 31
0.0
  0
LINE
  8
3
 62
3
 10
117.345
 20
-189.018
 30
0.0
 11
117.107
 21
-188.661
 31
0.0
  0
LINE
  8
3
 62
3
 10
117.107
 20
-188.661
 30
0.0
 11
116.988
 21
-188.065
 31
0.0
  0
LINE
  8
3
 62
3
 10
116.988
 20
-188.065
 30
0.0
 11
116.988
 21
-187.708
 31
0.0
  0
LINE
  8
3
 62
3
 10
116.988
 20
-187.708
 30
0.0
 11
117.107
 21
-187.113
 31
0.0
  0
LINE
  8
3
 62
3
 10
117.107
 20
-187.113
 30
0.0
 11
117.345
 21
-186.756
 31
0.0
  0
LINE
  8
3
 62
3
 10
117.345
 20
-186.756
 30
0.0
 11
117.702
 21
-186.637
 31
0.0
  0
LINE
  8
3
 62
3
 10
117.702
 20
-186.637
 30
0.0
 11
117.94
 21
-186.637
 31
0.0
  0
LINE
  8
3
 62
3
 10
117.94
 20
-186.637
 30
0.0
 11
118.298
 21
-186.756
 31
0.0
  0
LINE
  8
3
 62
3
 10
118.298
 20
-186.756
 30
0.0
 11
118.536
 21
-187.113
 31
0.0
  0
LINE
  8
3
 62
3
 10
118.536
 20
-187.113
 30
0.0
 11
118.655
 21
-187.708
 31
0.0
  0
LINE
  8
3
 62
3
 10
118.655
 20
-187.708
 30
0.0
 11
118.655
 21
-188.065
 31
0.0
  0
LINE
  8
3
 62
3
 10
118.655
 20
-188.065
 30
0.0
 11
118.536
 21
-188.661
 31
0.0
  0
LINE
  8
3
 62
3
 10
119.451
 20
-188.478
 30
0.0
 11
119.369
 21
-188.065
 31
0.0
  0
LINE
  8
3
 62
3
 10
119.369
 20
-188.065
 30
0.0
 11
119.369
 21
-187.708
 31
0.0
  0
LINE
  8
3
 62
3
 10
119.369
 20
-187.708
 30
0.0
 11
119.488
 21
-187.113
 31
0.0
  0
LINE
  8
3
 62
3
 10
119.488
 20
-187.113
 30
0.0
 11
119.726
 21
-186.756
 31
0.0
  0
LINE
  8
3
 62
3
 10
119.726
 20
-186.756
 30
0.0
 11
120.083
 21
-186.637
 31
0.0
  0
LINE
  8
3
 62
3
 10
120.083
 20
-186.637
 30
0.0
 11
120.321
 21
-186.637
 31
0.0
  0
LINE
  8
3
 62
3
 10
120.321
 20
-186.637
 30
0.0
 11
120.679
 21
-186.756
 31
0.0
  0
LINE
  8
3
 62
3
 10
120.679
 20
-186.756
 30
0.0
 11
120.917
 21
-187.113
 31
0.0
  0
LINE
  8
3
 62
3
 10
120.917
 20
-187.113
 30
0.0
 11
121.036
 21
-187.708
 31
0.0
  0
LINE
  8
3
 62
3
 10
121.036
 20
-187.708
 30
0.0
 11
121.036
 21
-188.065
 31
0.0
  0
LINE
  8
3
 62
3
 10
121.036
 20
-188.065
 30
0.0
 11
120.917
 21
-188.661
 31
0.0
  0
LINE
  8
3
 62
3
 10
120.917
 20
-188.661
 30
0.0
 11
120.679
 21
-189.018
 31
0.0
  0
LINE
  8
3
 62
3
 10
120.679
 20
-189.018
 30
0.0
 11
120.321
 21
-189.137
 31
0.0
  0
LINE
  8
3
 62
3
 10
120.321
 20
-189.137
 30
0.0
 11
120.083
 21
-189.137
 31
0.0
  0
LINE
  8
3
 62
3
 10
120.083
 20
-189.137
 30
0.0
 11
119.726
 21
-189.018
 31
0.0
  0
LINE
  8
3
 62
3
 10
119.726
 20
-189.018
 30
0.0
 11
119.488
 21
-188.661
 31
0.0
  0
LINE
  8
3
 62
3
 10
119.488
 20
-188.661
 30
0.0
 11
119.451
 21
-188.478
 31
0.0
  0
ENDSEC
  0
EOF
