  0
SECTION
  2
HEADER
  9
$ACADVER
  1
AC1009
  9
$DWGCODEPAGE
  3
ANSI_1252
  9
$EXTMIN
 10
1e+20
 20
1e+20
 30
1e+20
  9
$EXTMAX
 10
-1e+20
 20
-1e+20
 30
-1e+20
  9
$LIMMIN
 10
0.0
 20
0.0
  9
$LIMMAX
 10
420.0
 20
297.0
  9
$TDCREATE
 40
2461042.7516087964
  9
$TDUPDATE
 40
2461042.7516087964
  9
$ANGBASE
 50
0.0
  9
$ANGDIR
 70
0
  9
$PEXTMIN
 10
1e+20
 20
1e+20
 30
1e+20
  9
$PEXTMAX
 10
-1e+20
 20
-1e+20
 30
-1e+20
  9
$PLIMMIN
 10
0.0
 20
0.0
  9
$PLIMMAX
 10
420.0
 20
297.0
  0
ENDSEC
  0
SECTION
  2
TABLES
  0
TABLE
  2
VPORT
 70
1
  0
VPORT
  2
*Active
 70
0
 10
0.0
 20
0.0
 11
1.0
 21
1.0
 12
0.0
 22
0.0
 13
0.0
 23
0.0
 14
0.5
 24
0.5
 15
0.5
 25
0.5
 16
0.0
 26
0.0
 36
1.0
 17
0.0
 27
0.0
 37
0.0
 40
1000.0
 41
1.34
 42
50.0
 43
0.0
 44
0.0
 50
0.0
 51
0.0
 71
0
 72
1000
 73
1
 74
3
 75
0
 76
0
 77
0
 78
0
  0
ENDTAB
  0
TABLE
  2
LTYPE
 70
3
  0
LTYPE
  2
ByBlock
 70
0
  3

 72
65
 73
0
 40
0.0
  0
LTYPE
  2
ByLayer
 70
0
  3

 72
65
 73
0
 40
0.0
  0
LTYPE
  2
Continuous
 70
0
  3

 72
65
 73
0
 40
0.0
  0
ENDTAB
  0
TABLE
  2
LAYER
 70
2
  0
LAYER
  2
0
 70
0
 62
7
  6
Continuous
  0
LAYER
  2
Defpoints
 70
0
 62
7
  6
Continuous
  0
ENDTAB
  0
TABLE
  2
STYLE
 70
1
  0
STYLE
  2
Standard
 70
0
 40
0.0
 41
1.0
 50
0.0
 71
0
 42
2.5
  3
txt
  4

  0
ENDTAB
  0
TABLE
  2
VIEW
 70
0
  0
ENDTAB
  0
TABLE
  2
UCS
 70
0
  0
ENDTAB
  0
TABLE
  2
APPID
 70
3
  0
APPID
  2
ACAD
 70
0
  0
APPID
  2
HATCHBACKGROUNDCOLOR
 70
0
  0
APPID
  2
EZDXF
 70
0
  0
ENDTAB
  0
TABLE
  2
DIMSTYLE
 70
1
  0
DIMSTYLE
  2
Standard
 70
0
  3

  4

  5

  6

  7

 40
1.0
 41
2.5
 42
0.625
 43
3.75
 44
1.25
 45
0.0
 46
0.0
 47
0.0
 48
0.0
140
2.5
141
2.5
142
0.0
143
0.03937007874
144
1.0
145
0.0
146
1.0
147
0.625
 71
0
 72
0
 73
0
 74
0
 75
0
 76
0
 77
1
 78
8
170
0
171
3
172
1
173
0
174
0
175
0
176
0
177
0
178
0
  0
ENDTAB
  0
ENDSEC
  0
SECTION
  2
BLOCKS
  0
BLOCK
  8
0
  2
$Model_Space
 70
0
 10
0.0
 20
0.0
 30
0.0
  3
$Model_Space
  1

1001
EZDXF
1000
WRITTEN_BY_EZDXF
1000
1.3.4 @ 2026-01-01T17:02:19.793693+00:00
  0
ENDBLK
  8
0
  0
BLOCK
  8
0
  2
$Paper_Space
 70
0
 10
0.0
 20
0.0
 30
0.0
  3
$Paper_Space
  1

  0
ENDBLK
  8
0
  0
ENDSEC
  0
SECTION
  2
ENTITIES
  0
LINE
  8
1
 62
0
 10
-260.065
 20
-150.237
 30
0.0
 11
-260.065
 21
-149.637
 31
0.0
  0
LINE
  8
1
 62
0
 10
-260.065
 20
-149.637
 30
0.0
 11
-275.065
 21
-149.637
 31
0.0
  0
LINE
  8
1
 62
0
 10
-275.065
 20
-149.637
 30
0.0
 11
-275.065
 21
-150.637
 31
0.0
  0
LINE
  8
1
 62
0
 10
-275.065
 20
-150.637
 30
0.0
 11
-260.065
 21
-150.637
 31
0.0
  0
LINE
  8
1
 62
0
 10
-260.065
 20
-150.637
 30
0.0
 11
-260.065
 21
-150.237
 31
0.0
  0
LINE
  8
1
 62
0
 10
-260.065
 20
-150.637
 30
0.0
 11
-250.065
 21
-150.637
 31
0.0
  0
LINE
  8
1
 62
0
 10
-250.065
 20
-150.637
 30
0.0
 11
-250.065
 21
-151.137
 31
0.0
  0
LINE
  8
1
 62
0
 10
-250.065
 20
-151.137
 30
0.0
 11
-167.75
 21
-151.137
 31
0.0
  0
LINE
  8
1
 62
0
 10
-167.75
 20
-109.303
 30
0.0
 11
-165.75
 21
-108.149
 31
0.0
  0
LINE
  8
1
 62
0
 10
-165.75
 20
-108.149
 30
0.0
 11
-165.75
 21
-68.625
 31
0.0
  0
LINE
  8
1
 62
0
 10
-165.75
 20
-68.625
 30
0.0
 11
-167.75
 21
-67.47
 31
0.0
  0
LINE
  8
1
 62
0
 10
-167.75
 20
-109.303
 30
0.0
 11
-167.75
 21
-67.47
 31
0.0
  0
LINE
  8
1
 62
0
 10
-167.75
 20
-25.637
 30
0.0
 11
-228.5
 21
-25.637
 31
0.0
  0
LINE
  8
1
 62
0
 10
-228.5
 20
-25.637
 30
0.0
 11
-250.065
 21
-25.637
 31
0.0
  0
LINE
  8
1
 62
0
 10
-250.065
 20
-25.637
 30
0.0
 11
-250.065
 21
-26.137
 31
0.0
  0
LINE
  8
1
 62
0
 10
-250.065
 20
-26.137
 30
0.0
 11
-332.065
 21
-26.137
 31
0.0
  0
LINE
  8
1
 62
0
 10
-332.065
 20
-26.137
 30
0.0
 11
-332.065
 21
-67.47
 31
0.0
  0
LINE
  8
1
 62
0
 10
-332.065
 20
-67.47
 30
0.0
 11
-334.065
 21
-68.625
 31
0.0
  0
LINE
  8
1
 62
0
 10
-334.065
 20
-68.625
 30
0.0
 11
-334.065
 21
-108.149
 31
0.0
  0
LINE
  8
1
 62
0
 10
-334.065
 20
-108.149
 30
0.0
 11
-332.065
 21
-109.303
 31
0.0
  0
LINE
  8
1
 62
0
 10
-332.065
 20
-109.303
 30
0.0
 11
-332.065
 21
-150.637
 31
0.0
  0
LINE
  8
1
 62
0
 10
-332.065
 20
-150.637
 30
0.0
 11
-275.065
 21
-150.637
 31
0.0
  0
LINE
  8
1
 62
0
 10
-228.5
 20
-151.137
 30
0.0
 11
-228.5
 21
-231.637
 31
0.0
  0
LINE
  8
1
 62
0
 10
-228.5
 20
-231.637
 30
0.0
 11
-167.75
 21
-231.637
 31
0.0
  0
LINE
  8
1
 62
0
 10
-167.75
 20
-231.637
 30
0.0
 11
-167.75
 21
-232.637
 31
0.0
  0
LINE
  8
1
 62
0
 10
-167.75
 20
-232.637
 30
0.0
 11
-30.0
 21
-232.637
 31
0.0
  0
LINE
  8
1
 62
0
 10
-30.0
 20
-232.637
 30
0.0
 11
30.0
 21
-232.637
 31
0.0
  0
LINE
  8
1
 62
0
 10
30.0
 20
-232.637
 30
0.0
 11
167.75
 21
-232.637
 31
0.0
  0
LINE
  8
1
 62
0
 10
167.75
 20
-232.637
 30
0.0
 11
167.75
 21
-231.637
 31
0.0
  0
LINE
  8
1
 62
0
 10
167.75
 20
-231.637
 30
0.0
 11
228.5
 21
-231.637
 31
0.0
  0
LINE
  8
1
 62
0
 10
228.5
 20
-231.637
 30
0.0
 11
228.5
 21
-151.137
 31
0.0
  0
LINE
  8
1
 62
0
 10
228.5
 20
-151.137
 30
0.0
 11
250.065
 21
-151.137
 31
0.0
  0
LINE
  8
1
 62
0
 10
250.065
 20
-151.137
 30
0.0
 11
250.065
 21
-150.637
 31
0.0
  0
LINE
  8
1
 62
0
 10
250.065
 20
-150.637
 30
0.0
 11
275.065
 21
-150.637
 31
0.0
  0
LINE
  8
1
 62
0
 10
275.065
 20
-150.637
 30
0.0
 11
332.065
 21
-150.637
 31
0.0
  0
LINE
  8
1
 62
0
 10
332.065
 20
-150.637
 30
0.0
 11
332.065
 21
-109.303
 31
0.0
  0
LINE
  8
1
 62
0
 10
332.065
 20
-109.303
 30
0.0
 11
334.065
 21
-108.149
 31
0.0
  0
LINE
  8
1
 62
0
 10
334.065
 20
-108.149
 30
0.0
 11
334.065
 21
-68.625
 31
0.0
  0
LINE
  8
1
 62
0
 10
334.065
 20
-68.625
 30
0.0
 11
332.065
 21
-67.47
 31
0.0
  0
LINE
  8
1
 62
0
 10
332.065
 20
-67.47
 30
0.0
 11
332.065
 21
-26.137
 31
0.0
  0
LINE
  8
1
 62
0
 10
332.065
 20
-26.137
 30
0.0
 11
250.065
 21
-26.137
 31
0.0
  0
LINE
  8
1
 62
0
 10
250.065
 20
-26.137
 30
0.0
 11
250.065
 21
-25.637
 31
0.0
  0
LINE
  8
1
 62
0
 10
250.065
 20
-25.637
 30
0.0
 11
228.5
 21
-25.637
 31
0.0
  0
LINE
  8
1
 62
0
 10
228.5
 20
-25.637
 30
0.0
 11
228.5
 21
54.863
 31
0.0
  0
LINE
  8
1
 62
0
 10
228.5
 20
54.863
 30
0.0
 11
167.75
 21
54.863
 31
0.0
  0
LINE
  8
1
 62
0
 10
167.75
 20
54.863
 30
0.0
 11
167.75
 21
55.863
 31
0.0
  0
LINE
  8
1
 62
0
 10
167.75
 20
55.863
 30
0.0
 11
159.378
 21
70.363
 31
0.0
  0
ARC
  8
1
 62
0
 10
156.78
 20
68.863
 30
0.0
 40
3.0
 50
29.999445
 51
89.998834
  0
LINE
  8
1
 62
0
 10
156.78
 20
71.863
 30
0.0
 11
-156.78
 21
71.863
 31
0.0
  0
ARC
  8
1
 62
0
 10
-156.78
 20
68.863
 30
0.0
 40
3.0
 50
90.001166
 51
150.000555
  0
LINE
  8
1
 62
0
 10
-159.378
 20
70.363
 30
0.0
 11
-167.75
 21
55.863
 31
0.0
  0
LINE
  8
1
 62
0
 10
-167.75
 20
55.863
 30
0.0
 11
-167.75
 21
54.863
 31
0.0
  0
LINE
  8
1
 62
0
 10
-167.75
 20
54.863
 30
0.0
 11
-228.5
 21
54.863
 31
0.0
  0
LINE
  8
1
 62
0
 10
-228.5
 20
54.863
 30
0.0
 11
-228.5
 21
-25.637
 31
0.0
  0
LINE
  8
1
 62
0
 10
167.75
 20
-151.137
 30
0.0
 11
228.5
 21
-151.137
 31
0.0
  0
LINE
  8
1
 62
0
 10
167.75
 20
-109.303
 30
0.0
 11
165.75
 21
-108.149
 31
0.0
  0
LINE
  8
1
 62
0
 10
165.75
 20
-108.149
 30
0.0
 11
165.75
 21
-68.625
 31
0.0
  0
LINE
  8
1
 62
0
 10
165.75
 20
-68.625
 30
0.0
 11
167.75
 21
-67.47
 31
0.0
  0
LINE
  8
1
 62
0
 10
167.75
 20
-109.303
 30
0.0
 11
167.75
 21
-67.47
 31
0.0
  0
LINE
  8
1
 62
0
 10
167.75
 20
-25.637
 30
0.0
 11
228.5
 21
-25.637
 31
0.0
  0
LINE
  8
1
 62
0
 10
167.75
 20
82.263
 30
0.0
 11
167.75
 21
206.863
 31
0.0
  0
LINE
  8
1
 62
0
 10
167.75
 20
206.863
 30
0.0
 11
165.25
 21
206.863
 31
0.0
  0
LINE
  8
1
 62
0
 10
165.25
 20
206.863
 30
0.0
 11
165.25
 21
216.863
 31
0.0
  0
LINE
  8
1
 62
0
 10
165.25
 20
216.863
 30
0.0
 11
167.25
 21
216.863
 31
0.0
  0
LINE
  8
1
 62
0
 10
167.25
 20
216.863
 30
0.0
 11
167.25
 21
226.863
 31
0.0
  0
LINE
  8
1
 62
0
 10
167.25
 20
226.863
 30
0.0
 11
157.25
 21
232.637
 31
0.0
  0
LINE
  8
1
 62
0
 10
157.25
 20
232.637
 30
0.0
 11
-157.25
 21
232.637
 31
0.0
  0
LINE
  8
1
 62
0
 10
-157.25
 20
232.637
 30
0.0
 11
-167.25
 21
226.863
 31
0.0
  0
LINE
  8
1
 62
0
 10
-167.25
 20
226.863
 30
0.0
 11
-167.25
 21
216.863
 31
0.0
  0
LINE
  8
1
 62
0
 10
-167.25
 20
216.863
 30
0.0
 11
-165.25
 21
216.863
 31
0.0
  0
LINE
  8
1
 62
0
 10
-165.25
 20
216.863
 30
0.0
 11
-165.25
 21
206.863
 31
0.0
  0
LINE
  8
1
 62
0
 10
-165.25
 20
206.863
 30
0.0
 11
-167.75
 21
206.863
 31
0.0
  0
LINE
  8
1
 62
0
 10
-167.75
 20
206.863
 30
0.0
 11
-167.75
 21
81.863
 31
0.0
  0
LINE
  8
1
 62
0
 10
-167.75
 20
81.863
 30
0.0
 11
167.75
 21
81.863
 31
0.0
  0
LINE
  8
1
 62
0
 10
167.75
 20
81.863
 30
0.0
 11
167.75
 21
82.263
 31
0.0
  0
LINE
  8
1
 62
0
 10
275.065
 20
-150.637
 30
0.0
 11
275.065
 21
-149.637
 31
0.0
  0
LINE
  8
1
 62
0
 10
275.065
 20
-149.637
 30
0.0
 11
260.065
 21
-149.637
 31
0.0
  0
LINE
  8
1
 62
0
 10
260.065
 20
-149.637
 30
0.0
 11
260.065
 21
-150.637
 31
0.0
  0
LINE
  8
1
 62
0
 10
30.0
 20
-232.637
 30
0.0
 11
21.34
 21
-217.637
 31
0.0
  0
LINE
  8
1
 62
0
 10
21.34
 20
-217.637
 30
0.0
 11
-21.34
 21
-217.637
 31
0.0
  0
LINE
  8
1
 62
0
 10
-21.34
 20
-217.637
 30
0.0
 11
-30.0
 21
-232.637
 31
0.0
  0
LINE
  8
2
 62
1
 10
-167.75
 20
-231.637
 30
0.0
 11
-167.75
 21
-151.137
 31
0.0
  0
LINE
  8
2
 62
1
 10
-167.75
 20
-151.137
 30
0.0
 11
167.75
 21
-151.137
 31
0.0
  0
LINE
  8
2
 62
1
 10
167.75
 20
-151.137
 30
0.0
 11
167.75
 21
-231.637
 31
0.0
  0
LINE
  8
2
 62
1
 10
167.75
 20
-151.137
 30
0.0
 11
167.75
 21
-109.303
 31
0.0
  0
LINE
  8
2
 62
1
 10
167.75
 20
-67.47
 30
0.0
 11
167.75
 21
-25.637
 31
0.0
  0
LINE
  8
2
 62
1
 10
167.75
 20
-25.637
 30
0.0
 11
-167.75
 21
-25.637
 31
0.0
  0
LINE
  8
2
 62
1
 10
-167.75
 20
-25.637
 30
0.0
 11
-167.75
 21
-67.47
 31
0.0
  0
LINE
  8
2
 62
1
 10
-167.75
 20
-25.637
 30
0.0
 11
-167.75
 21
54.863
 31
0.0
  0
LINE
  8
2
 62
1
 10
-167.75
 20
55.863
 30
0.0
 11
167.75
 21
55.863
 31
0.0
  0
LINE
  8
2
 62
1
 10
167.75
 20
54.863
 30
0.0
 11
167.75
 21
-25.637
 31
0.0
  0
LINE
  8
2
 62
1
 10
250.065
 20
-150.637
 30
0.0
 11
250.065
 21
-26.137
 31
0.0
  0
LINE
  8
2
 62
1
 10
165.25
 20
206.863
 30
0.0
 11
-165.25
 21
206.863
 31
0.0
  0
LINE
  8
2
 62
1
 10
-250.065
 20
-26.137
 30
0.0
 11
-250.065
 21
-150.637
 31
0.0
  0
LINE
  8
2
 62
1
 10
-167.75
 20
-151.137
 30
0.0
 11
-167.75
 21
-109.303
 31
0.0
  0
LINE
  8
3
 62
3
 10
-322.922
 20
-172.637
 30
0.0
 11
-322.922
 21
-175.065
 31
0.0
  0
LINE
  8
3
 62
3
 10
-322.922
 20
-175.065
 30
0.0
 11
-321.494
 21
-173.637
 31
0.0
  0
LINE
  8
3
 62
3
 10
-322.922
 20
-175.065
 30
0.0
 11
-322.922
 21
-175.637
 31
0.0
  0
LINE
  8
3
 62
3
 10
-323.779
 20
-175.208
 30
0.0
 11
-324.065
 21
-175.494
 31
0.0
  0
LINE
  8
3
 62
3
 10
-324.065
 20
-175.494
 30
0.0
 11
-324.351
 21
-175.637
 31
0.0
  0
LINE
  8
3
 62
3
 10
-324.351
 20
-175.637
 30
0.0
 11
-324.779
 21
-175.637
 31
0.0
  0
LINE
  8
3
 62
3
 10
-324.779
 20
-175.637
 30
0.0
 11
-325.065
 21
-175.494
 31
0.0
  0
LINE
  8
3
 62
3
 10
-325.065
 20
-175.494
 30
0.0
 11
-325.351
 21
-175.208
 31
0.0
  0
LINE
  8
3
 62
3
 10
-325.351
 20
-175.208
 30
0.0
 11
-325.494
 21
-174.78
 31
0.0
  0
LINE
  8
3
 62
3
 10
-325.494
 20
-174.78
 30
0.0
 11
-325.494
 21
-174.494
 31
0.0
  0
LINE
  8
3
 62
3
 10
-325.494
 20
-174.494
 30
0.0
 11
-325.351
 21
-174.065
 31
0.0
  0
LINE
  8
3
 62
3
 10
-325.351
 20
-174.065
 30
0.0
 11
-325.065
 21
-173.78
 31
0.0
  0
LINE
  8
3
 62
3
 10
-325.065
 20
-173.78
 30
0.0
 11
-324.779
 21
-173.637
 31
0.0
  0
LINE
  8
3
 62
3
 10
-324.779
 20
-173.637
 30
0.0
 11
-324.351
 21
-173.637
 31
0.0
  0
LINE
  8
3
 62
3
 10
-324.351
 20
-173.637
 30
0.0
 11
-324.065
 21
-173.78
 31
0.0
  0
LINE
  8
3
 62
3
 10
-324.065
 20
-173.78
 30
0.0
 11
-323.779
 21
-174.065
 31
0.0
  0
LINE
  8
3
 62
3
 10
-326.494
 20
-174.065
 30
0.0
 11
-326.494
 21
-175.208
 31
0.0
  0
LINE
  8
3
 62
3
 10
-326.494
 20
-175.637
 30
0.0
 11
-326.494
 21
-175.208
 31
0.0
  0
LINE
  8
3
 62
3
 10
-326.494
 20
-175.208
 30
0.0
 11
-326.779
 21
-175.494
 31
0.0
  0
LINE
  8
3
 62
3
 10
-326.779
 20
-175.494
 30
0.0
 11
-327.065
 21
-175.637
 31
0.0
  0
LINE
  8
3
 62
3
 10
-327.065
 20
-175.637
 30
0.0
 11
-327.494
 21
-175.637
 31
0.0
  0
LINE
  8
3
 62
3
 10
-327.494
 20
-175.637
 30
0.0
 11
-327.779
 21
-175.494
 31
0.0
  0
LINE
  8
3
 62
3
 10
-327.779
 20
-175.494
 30
0.0
 11
-328.065
 21
-175.208
 31
0.0
  0
LINE
  8
3
 62
3
 10
-328.065
 20
-175.208
 30
0.0
 11
-328.208
 21
-174.78
 31
0.0
  0
LINE
  8
3
 62
3
 10
-328.208
 20
-174.78
 30
0.0
 11
-328.208
 21
-174.494
 31
0.0
  0
LINE
  8
3
 62
3
 10
-328.208
 20
-174.494
 30
0.0
 11
-328.065
 21
-174.065
 31
0.0
  0
LINE
  8
3
 62
3
 10
-328.065
 20
-174.065
 30
0.0
 11
-327.779
 21
-173.78
 31
0.0
  0
LINE
  8
3
 62
3
 10
-327.779
 20
-173.78
 30
0.0
 11
-327.494
 21
-173.637
 31
0.0
  0
LINE
  8
3
 62
3
 10
-327.494
 20
-173.637
 30
0.0
 11
-327.065
 21
-173.637
 31
0.0
  0
LINE
  8
3
 62
3
 10
-327.065
 20
-173.637
 30
0.0
 11
-326.779
 21
-173.78
 31
0.0
  0
LINE
  8
3
 62
3
 10
-326.779
 20
-173.78
 30
0.0
 11
-326.494
 21
-174.065
 31
0.0
  0
LINE
  8
3
 62
3
 10
-326.494
 20
-174.065
 30
0.0
 11
-326.494
 21
-173.637
 31
0.0
  0
LINE
  8
3
 62
3
 10
-329.351
 20
-172.637
 30
0.0
 11
-329.351
 21
-175.637
 31
0.0
  0
LINE
  8
3
 62
3
 10
-332.065
 20
-175.637
 30
0.0
 11
-332.065
 21
-175.208
 31
0.0
  0
LINE
  8
3
 62
3
 10
-332.065
 20
-175.208
 30
0.0
 11
-331.779
 21
-175.494
 31
0.0
  0
LINE
  8
3
 62
3
 10
-331.779
 20
-175.494
 30
0.0
 11
-331.494
 21
-175.637
 31
0.0
  0
LINE
  8
3
 62
3
 10
-331.494
 20
-175.637
 30
0.0
 11
-331.065
 21
-175.637
 31
0.0
  0
LINE
  8
3
 62
3
 10
-331.065
 20
-175.637
 30
0.0
 11
-330.779
 21
-175.494
 31
0.0
  0
LINE
  8
3
 62
3
 10
-330.779
 20
-175.494
 30
0.0
 11
-330.494
 21
-175.208
 31
0.0
  0
LINE
  8
3
 62
3
 10
-330.494
 20
-175.208
 30
0.0
 11
-330.351
 21
-174.78
 31
0.0
  0
LINE
  8
3
 62
3
 10
-330.351
 20
-174.78
 30
0.0
 11
-330.351
 21
-174.494
 31
0.0
  0
LINE
  8
3
 62
3
 10
-330.351
 20
-174.494
 30
0.0
 11
-330.494
 21
-174.065
 31
0.0
  0
LINE
  8
3
 62
3
 10
-330.494
 20
-174.065
 30
0.0
 11
-330.779
 21
-173.78
 31
0.0
  0
LINE
  8
3
 62
3
 10
-330.779
 20
-173.78
 30
0.0
 11
-331.065
 21
-173.637
 31
0.0
  0
LINE
  8
3
 62
3
 10
-331.065
 20
-173.637
 30
0.0
 11
-331.494
 21
-173.637
 31
0.0
  0
LINE
  8
3
 62
3
 10
-331.494
 20
-173.637
 30
0.0
 11
-331.779
 21
-173.78
 31
0.0
  0
LINE
  8
3
 62
3
 10
-331.779
 20
-173.78
 30
0.0
 11
-332.065
 21
-174.065
 31
0.0
  0
LINE
  8
3
 62
3
 10
-332.065
 20
-174.065
 30
0.0
 11
-332.065
 21
-172.637
 31
0.0
  0
LINE
  8
3
 62
3
 10
-332.065
 20
-174.065
 30
0.0
 11
-332.065
 21
-175.208
 31
0.0
  0
LINE
  8
3
 62
3
 10
-330.922
 20
-177.637
 30
0.0
 11
-331.351
 21
-177.637
 31
0.0
  0
LINE
  8
3
 62
3
 10
-331.351
 20
-177.637
 30
0.0
 11
-331.636
 21
-177.78
 31
0.0
  0
LINE
  8
3
 62
3
 10
-331.636
 20
-177.78
 30
0.0
 11
-331.922
 21
-178.065
 31
0.0
  0
LINE
  8
3
 62
3
 10
-331.922
 20
-178.065
 30
0.0
 11
-332.065
 21
-178.494
 31
0.0
  0
LINE
  8
3
 62
3
 10
-332.065
 20
-178.494
 30
0.0
 11
-332.065
 21
-177.637
 31
0.0
  0
LINE
  8
3
 62
3
 10
-332.065
 20
-178.494
 30
0.0
 11
-332.065
 21
-179.637
 31
0.0
  0
LINE
  8
3
 62
3
 10
-330.351
 20
-181.637
 30
0.0
 11
-330.351
 21
-183.922
 31
0.0
  0
LINE
  8
3
 62
3
 10
-330.351
 20
-183.922
 30
0.0
 11
-330.494
 21
-184.351
 31
0.0
  0
LINE
  8
3
 62
3
 10
-330.494
 20
-184.351
 30
0.0
 11
-330.636
 21
-184.494
 31
0.0
  0
LINE
  8
3
 62
3
 10
-330.636
 20
-184.494
 30
0.0
 11
-330.922
 21
-184.637
 31
0.0
  0
LINE
  8
3
 62
3
 10
-330.922
 20
-184.637
 30
0.0
 11
-331.351
 21
-184.637
 31
0.0
  0
LINE
  8
3
 62
3
 10
-331.351
 20
-184.637
 30
0.0
 11
-331.636
 21
-184.494
 31
0.0
  0
LINE
  8
3
 62
3
 10
-330.351
 20
-183.208
 30
0.0
 11
-330.636
 21
-183.494
 31
0.0
  0
LINE
  8
3
 62
3
 10
-330.636
 20
-183.494
 30
0.0
 11
-330.922
 21
-183.637
 31
0.0
  0
LINE
  8
3
 62
3
 10
-330.922
 20
-183.637
 30
0.0
 11
-331.351
 21
-183.637
 31
0.0
  0
LINE
  8
3
 62
3
 10
-331.351
 20
-183.637
 30
0.0
 11
-331.636
 21
-183.494
 31
0.0
  0
LINE
  8
3
 62
3
 10
-331.636
 20
-183.494
 30
0.0
 11
-331.922
 21
-183.208
 31
0.0
  0
LINE
  8
3
 62
3
 10
-331.922
 20
-183.208
 30
0.0
 11
-332.065
 21
-182.78
 31
0.0
  0
LINE
  8
3
 62
3
 10
-332.065
 20
-182.78
 30
0.0
 11
-332.065
 21
-182.494
 31
0.0
  0
LINE
  8
3
 62
3
 10
-332.065
 20
-182.494
 30
0.0
 11
-331.922
 21
-182.065
 31
0.0
  0
LINE
  8
3
 62
3
 10
-331.922
 20
-182.065
 30
0.0
 11
-331.636
 21
-181.78
 31
0.0
  0
LINE
  8
3
 62
3
 10
-331.636
 20
-181.78
 30
0.0
 11
-331.351
 21
-181.637
 31
0.0
  0
LINE
  8
3
 62
3
 10
-331.351
 20
-181.637
 30
0.0
 11
-330.922
 21
-181.637
 31
0.0
  0
LINE
  8
3
 62
3
 10
-330.922
 20
-181.637
 30
0.0
 11
-330.636
 21
-181.78
 31
0.0
  0
LINE
  8
3
 62
3
 10
-330.636
 20
-181.78
 30
0.0
 11
-330.351
 21
-182.065
 31
0.0
  0
LINE
  8
3
 62
3
 10
-330.208
 20
-178.494
 30
0.0
 11
-328.494
 21
-178.494
 31
0.0
  0
LINE
  8
3
 62
3
 10
-328.494
 20
-178.494
 30
0.0
 11
-328.494
 21
-178.208
 31
0.0
  0
LINE
  8
3
 62
3
 10
-328.494
 20
-178.208
 30
0.0
 11
-328.636
 21
-177.922
 31
0.0
  0
LINE
  8
3
 62
3
 10
-328.636
 20
-177.922
 30
0.0
 11
-328.779
 21
-177.78
 31
0.0
  0
LINE
  8
3
 62
3
 10
-328.779
 20
-177.78
 30
0.0
 11
-329.065
 21
-177.637
 31
0.0
  0
LINE
  8
3
 62
3
 10
-329.065
 20
-177.637
 30
0.0
 11
-329.494
 21
-177.637
 31
0.0
  0
LINE
  8
3
 62
3
 10
-329.494
 20
-177.637
 30
0.0
 11
-329.779
 21
-177.78
 31
0.0
  0
LINE
  8
3
 62
3
 10
-329.779
 20
-177.78
 30
0.0
 11
-330.065
 21
-178.065
 31
0.0
  0
LINE
  8
3
 62
3
 10
-330.065
 20
-178.065
 30
0.0
 11
-330.208
 21
-178.494
 31
0.0
  0
LINE
  8
3
 62
3
 10
-330.208
 20
-178.494
 30
0.0
 11
-330.208
 21
-178.78
 31
0.0
  0
LINE
  8
3
 62
3
 10
-330.208
 20
-178.78
 30
0.0
 11
-330.065
 21
-179.208
 31
0.0
  0
LINE
  8
3
 62
3
 10
-330.065
 20
-179.208
 30
0.0
 11
-329.779
 21
-179.494
 31
0.0
  0
LINE
  8
3
 62
3
 10
-329.779
 20
-179.494
 30
0.0
 11
-329.494
 21
-179.637
 31
0.0
  0
LINE
  8
3
 62
3
 10
-329.494
 20
-179.637
 30
0.0
 11
-329.065
 21
-179.637
 31
0.0
  0
LINE
  8
3
 62
3
 10
-329.065
 20
-179.637
 30
0.0
 11
-328.779
 21
-179.494
 31
0.0
  0
LINE
  8
3
 62
3
 10
-328.779
 20
-179.494
 30
0.0
 11
-328.494
 21
-179.208
 31
0.0
  0
LINE
  8
3
 62
3
 10
-328.208
 20
-181.637
 30
0.0
 11
-328.636
 21
-181.637
 31
0.0
  0
LINE
  8
3
 62
3
 10
-328.636
 20
-181.637
 30
0.0
 11
-328.922
 21
-181.78
 31
0.0
  0
LINE
  8
3
 62
3
 10
-328.922
 20
-181.78
 30
0.0
 11
-329.208
 21
-182.065
 31
0.0
  0
LINE
  8
3
 62
3
 10
-329.208
 20
-182.065
 30
0.0
 11
-329.351
 21
-182.494
 31
0.0
  0
LINE
  8
3
 62
3
 10
-329.351
 20
-182.494
 30
0.0
 11
-329.351
 21
-181.637
 31
0.0
  0
LINE
  8
3
 62
3
 10
-329.351
 20
-182.494
 30
0.0
 11
-329.351
 21
-183.637
 31
0.0
  0
LINE
  8
3
 62
3
 10
-327.494
 20
-182.494
 30
0.0
 11
-325.779
 21
-182.494
 31
0.0
  0
LINE
  8
3
 62
3
 10
-325.779
 20
-182.494
 30
0.0
 11
-325.779
 21
-182.208
 31
0.0
  0
LINE
  8
3
 62
3
 10
-325.779
 20
-182.208
 30
0.0
 11
-325.922
 21
-181.922
 31
0.0
  0
LINE
  8
3
 62
3
 10
-325.922
 20
-181.922
 30
0.0
 11
-326.065
 21
-181.78
 31
0.0
  0
LINE
  8
3
 62
3
 10
-326.065
 20
-181.78
 30
0.0
 11
-326.351
 21
-181.637
 31
0.0
  0
LINE
  8
3
 62
3
 10
-326.351
 20
-181.637
 30
0.0
 11
-326.779
 21
-181.637
 31
0.0
  0
LINE
  8
3
 62
3
 10
-326.779
 20
-181.637
 30
0.0
 11
-327.065
 21
-181.78
 31
0.0
  0
LINE
  8
3
 62
3
 10
-327.065
 20
-181.78
 30
0.0
 11
-327.351
 21
-182.065
 31
0.0
  0
LINE
  8
3
 62
3
 10
-327.351
 20
-182.065
 30
0.0
 11
-327.494
 21
-182.494
 31
0.0
  0
LINE
  8
3
 62
3
 10
-327.494
 20
-182.494
 30
0.0
 11
-327.494
 21
-182.78
 31
0.0
  0
LINE
  8
3
 62
3
 10
-327.494
 20
-182.78
 30
0.0
 11
-327.351
 21
-183.208
 31
0.0
  0
LINE
  8
3
 62
3
 10
-327.351
 20
-183.208
 30
0.0
 11
-327.065
 21
-183.494
 31
0.0
  0
LINE
  8
3
 62
3
 10
-327.065
 20
-183.494
 30
0.0
 11
-326.779
 21
-183.637
 31
0.0
  0
LINE
  8
3
 62
3
 10
-326.779
 20
-183.637
 30
0.0
 11
-326.351
 21
-183.637
 31
0.0
  0
LINE
  8
3
 62
3
 10
-326.351
 20
-183.637
 30
0.0
 11
-326.065
 21
-183.494
 31
0.0
  0
LINE
  8
3
 62
3
 10
-326.065
 20
-183.494
 30
0.0
 11
-325.779
 21
-183.208
 31
0.0
  0
LINE
  8
3
 62
3
 10
-324.922
 20
-182.494
 30
0.0
 11
-323.208
 21
-182.494
 31
0.0
  0
LINE
  8
3
 62
3
 10
-323.208
 20
-182.494
 30
0.0
 11
-323.208
 21
-182.208
 31
0.0
  0
LINE
  8
3
 62
3
 10
-323.208
 20
-182.208
 30
0.0
 11
-323.351
 21
-181.922
 31
0.0
  0
LINE
  8
3
 62
3
 10
-323.351
 20
-181.922
 30
0.0
 11
-323.494
 21
-181.78
 31
0.0
  0
LINE
  8
3
 62
3
 10
-323.494
 20
-181.78
 30
0.0
 11
-323.779
 21
-181.637
 31
0.0
  0
LINE
  8
3
 62
3
 10
-323.779
 20
-181.637
 30
0.0
 11
-324.208
 21
-181.637
 31
0.0
  0
LINE
  8
3
 62
3
 10
-324.208
 20
-181.637
 30
0.0
 11
-324.494
 21
-181.78
 31
0.0
  0
LINE
  8
3
 62
3
 10
-324.494
 20
-181.78
 30
0.0
 11
-324.779
 21
-182.065
 31
0.0
  0
LINE
  8
3
 62
3
 10
-324.779
 20
-182.065
 30
0.0
 11
-324.922
 21
-182.494
 31
0.0
  0
LINE
  8
3
 62
3
 10
-324.922
 20
-182.494
 30
0.0
 11
-324.922
 21
-182.78
 31
0.0
  0
LINE
  8
3
 62
3
 10
-324.922
 20
-182.78
 30
0.0
 11
-324.779
 21
-183.208
 31
0.0
  0
LINE
  8
3
 62
3
 10
-324.779
 20
-183.208
 30
0.0
 11
-324.494
 21
-183.494
 31
0.0
  0
LINE
  8
3
 62
3
 10
-324.494
 20
-183.494
 30
0.0
 11
-324.208
 21
-183.637
 31
0.0
  0
LINE
  8
3
 62
3
 10
-324.208
 20
-183.637
 30
0.0
 11
-323.779
 21
-183.637
 31
0.0
  0
LINE
  8
3
 62
3
 10
-323.779
 20
-183.637
 30
0.0
 11
-323.494
 21
-183.494
 31
0.0
  0
LINE
  8
3
 62
3
 10
-323.494
 20
-183.494
 30
0.0
 11
-323.208
 21
-183.208
 31
0.0
  0
LINE
  8
3
 62
3
 10
-322.351
 20
-183.637
 30
0.0
 11
-322.351
 21
-182.208
 31
0.0
  0
LINE
  8
3
 62
3
 10
-320.779
 20
-183.637
 30
0.0
 11
-320.779
 21
-182.208
 31
0.0
  0
LINE
  8
3
 62
3
 10
-320.779
 20
-182.208
 30
0.0
 11
-320.922
 21
-181.78
 31
0.0
  0
LINE
  8
3
 62
3
 10
-320.922
 20
-181.78
 30
0.0
 11
-321.208
 21
-181.637
 31
0.0
  0
LINE
  8
3
 62
3
 10
-321.208
 20
-181.637
 30
0.0
 11
-321.636
 21
-181.637
 31
0.0
  0
LINE
  8
3
 62
3
 10
-321.636
 20
-181.637
 30
0.0
 11
-321.922
 21
-181.78
 31
0.0
  0
LINE
  8
3
 62
3
 10
-321.922
 20
-181.78
 30
0.0
 11
-322.351
 21
-182.208
 31
0.0
  0
LINE
  8
3
 62
3
 10
-322.351
 20
-182.208
 30
0.0
 11
-322.351
 21
-181.637
 31
0.0
  0
LINE
  8
3
 62
3
 10
-325.922
 20
-179.637
 30
0.0
 11
-325.922
 21
-179.208
 31
0.0
  0
LINE
  8
3
 62
3
 10
-325.922
 20
-179.208
 30
0.0
 11
-326.208
 21
-179.494
 31
0.0
  0
LINE
  8
3
 62
3
 10
-326.208
 20
-179.494
 30
0.0
 11
-326.494
 21
-179.637
 31
0.0
  0
LINE
  8
3
 62
3
 10
-326.494
 20
-179.637
 30
0.0
 11
-326.922
 21
-179.637
 31
0.0
  0
LINE
  8
3
 62
3
 10
-326.922
 20
-179.637
 30
0.0
 11
-327.208
 21
-179.494
 31
0.0
  0
LINE
  8
3
 62
3
 10
-327.208
 20
-179.494
 30
0.0
 11
-327.494
 21
-179.208
 31
0.0
  0
LINE
  8
3
 62
3
 10
-327.494
 20
-179.208
 30
0.0
 11
-327.636
 21
-178.78
 31
0.0
  0
LINE
  8
3
 62
3
 10
-327.636
 20
-178.78
 30
0.0
 11
-327.636
 21
-178.494
 31
0.0
  0
LINE
  8
3
 62
3
 10
-327.636
 20
-178.494
 30
0.0
 11
-327.494
 21
-178.065
 31
0.0
  0
LINE
  8
3
 62
3
 10
-327.494
 20
-178.065
 30
0.0
 11
-327.208
 21
-177.78
 31
0.0
  0
LINE
  8
3
 62
3
 10
-327.208
 20
-177.78
 30
0.0
 11
-326.922
 21
-177.637
 31
0.0
  0
LINE
  8
3
 62
3
 10
-326.922
 20
-177.637
 30
0.0
 11
-326.494
 21
-177.637
 31
0.0
  0
LINE
  8
3
 62
3
 10
-326.494
 20
-177.637
 30
0.0
 11
-326.208
 21
-177.78
 31
0.0
  0
LINE
  8
3
 62
3
 10
-326.208
 20
-177.78
 30
0.0
 11
-325.922
 21
-178.065
 31
0.0
  0
LINE
  8
3
 62
3
 10
-325.922
 20
-178.065
 30
0.0
 11
-325.922
 21
-176.637
 31
0.0
  0
LINE
  8
3
 62
3
 10
-325.922
 20
-178.065
 30
0.0
 11
-325.922
 21
-179.208
 31
0.0
  0
LINE
  8
3
 62
3
 10
-321.351
 20
-175.637
 30
0.0
 11
-322.351
 21
-174.494
 31
0.0
  0
LINE
  8
3
 62
3
 10
-315.494
 20
-166.065
 30
0.0
 11
-315.494
 21
-164.637
 31
0.0
  0
LINE
  8
3
 62
3
 10
-315.494
 20
-164.637
 30
0.0
 11
-314.208
 21
-164.637
 31
0.0
  0
LINE
  8
3
 62
3
 10
-314.208
 20
-164.637
 30
0.0
 11
-313.779
 21
-164.78
 31
0.0
  0
LINE
  8
3
 62
3
 10
-313.779
 20
-164.78
 30
0.0
 11
-313.636
 21
-164.922
 31
0.0
  0
LINE
  8
3
 62
3
 10
-313.636
 20
-164.922
 30
0.0
 11
-313.494
 21
-165.208
 31
0.0
  0
LINE
  8
3
 62
3
 10
-313.494
 20
-165.208
 30
0.0
 11
-313.494
 21
-165.494
 31
0.0
  0
LINE
  8
3
 62
3
 10
-313.494
 20
-165.494
 30
0.0
 11
-313.636
 21
-165.78
 31
0.0
  0
LINE
  8
3
 62
3
 10
-313.636
 20
-165.78
 30
0.0
 11
-313.779
 21
-165.922
 31
0.0
  0
LINE
  8
3
 62
3
 10
-313.779
 20
-165.922
 30
0.0
 11
-314.208
 21
-166.065
 31
0.0
  0
LINE
  8
3
 62
3
 10
-314.208
 20
-166.065
 30
0.0
 11
-313.779
 21
-166.208
 31
0.0
  0
LINE
  8
3
 62
3
 10
-313.779
 20
-166.208
 30
0.0
 11
-313.636
 21
-166.351
 31
0.0
  0
LINE
  8
3
 62
3
 10
-313.636
 20
-166.351
 30
0.0
 11
-313.494
 21
-166.637
 31
0.0
  0
LINE
  8
3
 62
3
 10
-313.494
 20
-166.637
 30
0.0
 11
-313.494
 21
-167.065
 31
0.0
  0
LINE
  8
3
 62
3
 10
-313.494
 20
-167.065
 30
0.0
 11
-313.636
 21
-167.351
 31
0.0
  0
LINE
  8
3
 62
3
 10
-313.636
 20
-167.351
 30
0.0
 11
-313.779
 21
-167.494
 31
0.0
  0
LINE
  8
3
 62
3
 10
-313.779
 20
-167.494
 30
0.0
 11
-314.208
 21
-167.637
 31
0.0
  0
LINE
  8
3
 62
3
 10
-314.208
 20
-167.637
 30
0.0
 11
-315.494
 21
-167.637
 31
0.0
  0
LINE
  8
3
 62
3
 10
-315.494
 20
-167.637
 30
0.0
 11
-315.494
 21
-167.208
 31
0.0
  0
LINE
  8
3
 62
3
 10
-315.494
 20
-167.208
 30
0.0
 11
-315.494
 21
-166.065
 31
0.0
  0
LINE
  8
3
 62
3
 10
-315.494
 20
-166.065
 30
0.0
 11
-314.208
 21
-166.065
 31
0.0
  0
LINE
  8
3
 62
3
 10
-312.494
 20
-165.637
 30
0.0
 11
-312.494
 21
-166.494
 31
0.0
  0
LINE
  8
3
 62
3
 10
-312.494
 20
-166.494
 30
0.0
 11
-312.351
 21
-166.065
 31
0.0
  0
LINE
  8
3
 62
3
 10
-312.351
 20
-166.065
 30
0.0
 11
-312.065
 21
-165.78
 31
0.0
  0
LINE
  8
3
 62
3
 10
-312.065
 20
-165.78
 30
0.0
 11
-311.779
 21
-165.637
 31
0.0
  0
LINE
  8
3
 62
3
 10
-311.779
 20
-165.637
 30
0.0
 11
-311.351
 21
-165.637
 31
0.0
  0
LINE
  8
3
 62
3
 10
-312.494
 20
-166.494
 30
0.0
 11
-312.494
 21
-167.637
 31
0.0
  0
LINE
  8
3
 62
3
 10
-310.494
 20
-166.065
 30
0.0
 11
-310.208
 21
-165.78
 31
0.0
  0
LINE
  8
3
 62
3
 10
-310.208
 20
-165.78
 30
0.0
 11
-309.922
 21
-165.637
 31
0.0
  0
LINE
  8
3
 62
3
 10
-309.922
 20
-165.637
 30
0.0
 11
-309.636
 21
-165.637
 31
0.0
  0
LINE
  8
3
 62
3
 10
-309.636
 20
-165.637
 30
0.0
 11
-309.494
 21
-165.637
 31
0.0
  0
LINE
  8
3
 62
3
 10
-309.494
 20
-165.637
 30
0.0
 11
-309.208
 21
-165.78
 31
0.0
  0
LINE
  8
3
 62
3
 10
-309.208
 20
-165.78
 30
0.0
 11
-308.922
 21
-166.065
 31
0.0
  0
LINE
  8
3
 62
3
 10
-308.922
 20
-166.065
 30
0.0
 11
-308.779
 21
-166.494
 31
0.0
  0
LINE
  8
3
 62
3
 10
-308.779
 20
-166.494
 30
0.0
 11
-308.779
 21
-166.78
 31
0.0
  0
LINE
  8
3
 62
3
 10
-308.779
 20
-166.78
 30
0.0
 11
-308.922
 21
-167.208
 31
0.0
  0
LINE
  8
3
 62
3
 10
-308.922
 20
-167.208
 30
0.0
 11
-309.208
 21
-167.494
 31
0.0
  0
LINE
  8
3
 62
3
 10
-309.208
 20
-167.494
 30
0.0
 11
-309.494
 21
-167.637
 31
0.0
  0
LINE
  8
3
 62
3
 10
-309.494
 20
-167.637
 30
0.0
 11
-309.922
 21
-167.637
 31
0.0
  0
LINE
  8
3
 62
3
 10
-309.922
 20
-167.637
 30
0.0
 11
-310.208
 21
-167.494
 31
0.0
  0
LINE
  8
3
 62
3
 10
-310.208
 20
-167.494
 30
0.0
 11
-310.494
 21
-167.208
 31
0.0
  0
LINE
  8
3
 62
3
 10
-310.494
 20
-167.208
 30
0.0
 11
-310.636
 21
-166.78
 31
0.0
  0
LINE
  8
3
 62
3
 10
-310.636
 20
-166.78
 30
0.0
 11
-310.636
 21
-166.494
 31
0.0
  0
LINE
  8
3
 62
3
 10
-310.636
 20
-166.494
 30
0.0
 11
-310.494
 21
-166.065
 31
0.0
  0
LINE
  8
3
 62
3
 10
-310.636
 20
-163.637
 30
0.0
 11
-310.636
 21
-161.637
 31
0.0
  0
LINE
  8
3
 62
3
 10
-310.636
 20
-160.922
 30
0.0
 11
-310.779
 21
-160.78
 31
0.0
  0
LINE
  8
3
 62
3
 10
-310.779
 20
-160.78
 30
0.0
 11
-310.636
 21
-160.637
 31
0.0
  0
LINE
  8
3
 62
3
 10
-310.636
 20
-160.637
 30
0.0
 11
-310.494
 21
-160.78
 31
0.0
  0
LINE
  8
3
 62
3
 10
-310.494
 20
-160.78
 30
0.0
 11
-310.636
 21
-160.922
 31
0.0
  0
LINE
  8
3
 62
3
 10
-309.636
 20
-160.637
 30
0.0
 11
-309.636
 21
-163.065
 31
0.0
  0
LINE
  8
3
 62
3
 10
-309.636
 20
-163.065
 30
0.0
 11
-308.208
 21
-161.637
 31
0.0
  0
LINE
  8
3
 62
3
 10
-309.636
 20
-163.065
 30
0.0
 11
-309.636
 21
-163.637
 31
0.0
  0
LINE
  8
3
 62
3
 10
-309.065
 20
-162.494
 30
0.0
 11
-308.065
 21
-163.637
 31
0.0
  0
LINE
  8
3
 62
3
 10
-307.208
 20
-162.494
 30
0.0
 11
-305.494
 21
-162.494
 31
0.0
  0
LINE
  8
3
 62
3
 10
-305.494
 20
-162.494
 30
0.0
 11
-305.494
 21
-162.208
 31
0.0
  0
LINE
  8
3
 62
3
 10
-305.494
 20
-162.208
 30
0.0
 11
-305.636
 21
-161.922
 31
0.0
  0
LINE
  8
3
 62
3
 10
-305.636
 20
-161.922
 30
0.0
 11
-305.779
 21
-161.78
 31
0.0
  0
LINE
  8
3
 62
3
 10
-305.779
 20
-161.78
 30
0.0
 11
-306.065
 21
-161.637
 31
0.0
  0
LINE
  8
3
 62
3
 10
-306.065
 20
-161.637
 30
0.0
 11
-306.494
 21
-161.637
 31
0.0
  0
LINE
  8
3
 62
3
 10
-306.494
 20
-161.637
 30
0.0
 11
-306.779
 21
-161.78
 31
0.0
  0
LINE
  8
3
 62
3
 10
-306.779
 20
-161.78
 30
0.0
 11
-307.065
 21
-162.065
 31
0.0
  0
LINE
  8
3
 62
3
 10
-307.065
 20
-162.065
 30
0.0
 11
-307.208
 21
-162.494
 31
0.0
  0
LINE
  8
3
 62
3
 10
-307.208
 20
-162.494
 30
0.0
 11
-307.208
 21
-162.78
 31
0.0
  0
LINE
  8
3
 62
3
 10
-307.208
 20
-162.78
 30
0.0
 11
-307.065
 21
-163.208
 31
0.0
  0
LINE
  8
3
 62
3
 10
-307.065
 20
-163.208
 30
0.0
 11
-306.779
 21
-163.494
 31
0.0
  0
LINE
  8
3
 62
3
 10
-306.779
 20
-163.494
 30
0.0
 11
-306.494
 21
-163.637
 31
0.0
  0
LINE
  8
3
 62
3
 10
-306.494
 20
-163.637
 30
0.0
 11
-306.065
 21
-163.637
 31
0.0
  0
LINE
  8
3
 62
3
 10
-306.065
 20
-163.637
 30
0.0
 11
-305.779
 21
-163.494
 31
0.0
  0
LINE
  8
3
 62
3
 10
-305.779
 20
-163.494
 30
0.0
 11
-305.494
 21
-163.208
 31
0.0
  0
LINE
  8
3
 62
3
 10
-302.636
 20
-165.637
 30
0.0
 11
-302.636
 21
-166.494
 31
0.0
  0
LINE
  8
3
 62
3
 10
-302.636
 20
-166.494
 30
0.0
 11
-302.494
 21
-166.065
 31
0.0
  0
LINE
  8
3
 62
3
 10
-302.494
 20
-166.065
 30
0.0
 11
-302.208
 21
-165.78
 31
0.0
  0
LINE
  8
3
 62
3
 10
-302.208
 20
-165.78
 30
0.0
 11
-301.922
 21
-165.637
 31
0.0
  0
LINE
  8
3
 62
3
 10
-301.922
 20
-165.637
 30
0.0
 11
-301.494
 21
-165.637
 31
0.0
  0
LINE
  8
3
 62
3
 10
-302.636
 20
-166.494
 30
0.0
 11
-302.636
 21
-167.637
 31
0.0
  0
LINE
  8
3
 62
3
 10
-303.494
 20
-167.208
 30
0.0
 11
-303.779
 21
-167.494
 31
0.0
  0
LINE
  8
3
 62
3
 10
-303.779
 20
-167.494
 30
0.0
 11
-304.065
 21
-167.637
 31
0.0
  0
LINE
  8
3
 62
3
 10
-304.065
 20
-167.637
 30
0.0
 11
-304.494
 21
-167.637
 31
0.0
  0
LINE
  8
3
 62
3
 10
-304.494
 20
-167.637
 30
0.0
 11
-304.779
 21
-167.494
 31
0.0
  0
LINE
  8
3
 62
3
 10
-304.779
 20
-167.494
 30
0.0
 11
-305.065
 21
-167.208
 31
0.0
  0
LINE
  8
3
 62
3
 10
-305.065
 20
-167.208
 30
0.0
 11
-305.208
 21
-166.78
 31
0.0
  0
LINE
  8
3
 62
3
 10
-305.208
 20
-166.78
 30
0.0
 11
-305.208
 21
-166.494
 31
0.0
  0
LINE
  8
3
 62
3
 10
-305.208
 20
-166.494
 30
0.0
 11
-305.065
 21
-166.065
 31
0.0
  0
LINE
  8
3
 62
3
 10
-305.065
 20
-166.065
 30
0.0
 11
-304.779
 21
-165.78
 31
0.0
  0
LINE
  8
3
 62
3
 10
-304.779
 20
-165.78
 30
0.0
 11
-304.494
 21
-165.637
 31
0.0
  0
LINE
  8
3
 62
3
 10
-304.494
 20
-165.637
 30
0.0
 11
-304.065
 21
-165.637
 31
0.0
  0
LINE
  8
3
 62
3
 10
-304.065
 20
-165.637
 30
0.0
 11
-303.779
 21
-165.78
 31
0.0
  0
LINE
  8
3
 62
3
 10
-303.779
 20
-165.78
 30
0.0
 11
-303.636
 21
-165.922
 31
0.0
  0
LINE
  8
3
 62
3
 10
-303.636
 20
-165.922
 30
0.0
 11
-303.494
 21
-166.208
 31
0.0
  0
LINE
  8
3
 62
3
 10
-303.494
 20
-166.208
 30
0.0
 11
-303.494
 21
-166.494
 31
0.0
  0
LINE
  8
3
 62
3
 10
-303.494
 20
-166.494
 30
0.0
 11
-305.208
 21
-166.494
 31
0.0
  0
LINE
  8
3
 62
3
 10
-306.208
 20
-166.065
 30
0.0
 11
-306.208
 21
-167.208
 31
0.0
  0
LINE
  8
3
 62
3
 10
-306.208
 20
-167.637
 30
0.0
 11
-306.208
 21
-167.208
 31
0.0
  0
LINE
  8
3
 62
3
 10
-306.208
 20
-167.208
 30
0.0
 11
-306.494
 21
-167.494
 31
0.0
  0
LINE
  8
3
 62
3
 10
-306.494
 20
-167.494
 30
0.0
 11
-306.779
 21
-167.637
 31
0.0
  0
LINE
  8
3
 62
3
 10
-306.779
 20
-167.637
 30
0.0
 11
-307.208
 21
-167.637
 31
0.0
  0
LINE
  8
3
 62
3
 10
-307.208
 20
-167.637
 30
0.0
 11
-307.494
 21
-167.494
 31
0.0
  0
LINE
  8
3
 62
3
 10
-307.494
 20
-167.494
 30
0.0
 11
-307.779
 21
-167.208
 31
0.0
  0
LINE
  8
3
 62
3
 10
-307.779
 20
-167.208
 30
0.0
 11
-307.922
 21
-166.78
 31
0.0
  0
LINE
  8
3
 62
3
 10
-307.922
 20
-166.78
 30
0.0
 11
-307.922
 21
-166.494
 31
0.0
  0
LINE
  8
3
 62
3
 10
-307.922
 20
-166.494
 30
0.0
 11
-307.779
 21
-166.065
 31
0.0
  0
LINE
  8
3
 62
3
 10
-307.779
 20
-166.065
 30
0.0
 11
-307.494
 21
-165.78
 31
0.0
  0
LINE
  8
3
 62
3
 10
-307.494
 20
-165.78
 30
0.0
 11
-307.208
 21
-165.637
 31
0.0
  0
LINE
  8
3
 62
3
 10
-307.208
 20
-165.637
 30
0.0
 11
-306.779
 21
-165.637
 31
0.0
  0
LINE
  8
3
 62
3
 10
-306.779
 20
-165.637
 30
0.0
 11
-306.494
 21
-165.78
 31
0.0
  0
LINE
  8
3
 62
3
 10
-306.494
 20
-165.78
 30
0.0
 11
-306.208
 21
-166.065
 31
0.0
  0
LINE
  8
3
 62
3
 10
-306.208
 20
-166.065
 30
0.0
 11
-306.208
 21
-164.637
 31
0.0
  0
LINE
  8
3
 62
3
 10
-300.208
 20
-163.637
 30
0.0
 11
-300.208
 21
-163.208
 31
0.0
  0
LINE
  8
3
 62
3
 10
-300.208
 20
-163.208
 30
0.0
 11
-300.494
 21
-163.494
 31
0.0
  0
LINE
  8
3
 62
3
 10
-300.494
 20
-163.494
 30
0.0
 11
-300.779
 21
-163.637
 31
0.0
  0
LINE
  8
3
 62
3
 10
-300.779
 20
-163.637
 30
0.0
 11
-301.208
 21
-163.637
 31
0.0
  0
LINE
  8
3
 62
3
 10
-301.208
 20
-163.637
 30
0.0
 11
-301.494
 21
-163.494
 31
0.0
  0
LINE
  8
3
 62
3
 10
-301.494
 20
-163.494
 30
0.0
 11
-301.779
 21
-163.208
 31
0.0
  0
LINE
  8
3
 62
3
 10
-301.779
 20
-163.208
 30
0.0
 11
-301.922
 21
-162.78
 31
0.0
  0
LINE
  8
3
 62
3
 10
-301.922
 20
-162.78
 30
0.0
 11
-301.922
 21
-162.494
 31
0.0
  0
LINE
  8
3
 62
3
 10
-301.922
 20
-162.494
 30
0.0
 11
-301.779
 21
-162.065
 31
0.0
  0
LINE
  8
3
 62
3
 10
-301.779
 20
-162.065
 30
0.0
 11
-301.494
 21
-161.78
 31
0.0
  0
LINE
  8
3
 62
3
 10
-301.494
 20
-161.78
 30
0.0
 11
-301.208
 21
-161.637
 31
0.0
  0
LINE
  8
3
 62
3
 10
-301.208
 20
-161.637
 30
0.0
 11
-300.779
 21
-161.637
 31
0.0
  0
LINE
  8
3
 62
3
 10
-300.779
 20
-161.637
 30
0.0
 11
-300.494
 21
-161.78
 31
0.0
  0
LINE
  8
3
 62
3
 10
-300.494
 20
-161.78
 30
0.0
 11
-300.208
 21
-162.065
 31
0.0
  0
LINE
  8
3
 62
3
 10
-300.208
 20
-162.065
 30
0.0
 11
-300.208
 21
-161.637
 31
0.0
  0
LINE
  8
3
 62
3
 10
-300.208
 20
-162.065
 30
0.0
 11
-300.208
 21
-163.208
 31
0.0
  0
LINE
  8
3
 62
3
 10
-300.779
 20
-167.208
 30
0.0
 11
-300.636
 21
-167.494
 31
0.0
  0
LINE
  8
3
 62
3
 10
-300.636
 20
-167.494
 30
0.0
 11
-300.208
 21
-167.637
 31
0.0
  0
LINE
  8
3
 62
3
 10
-300.208
 20
-167.637
 30
0.0
 11
-299.779
 21
-167.637
 31
0.0
  0
LINE
  8
3
 62
3
 10
-299.779
 20
-167.637
 30
0.0
 11
-299.351
 21
-167.494
 31
0.0
  0
LINE
  8
3
 62
3
 10
-299.351
 20
-167.494
 30
0.0
 11
-299.208
 21
-167.208
 31
0.0
  0
LINE
  8
3
 62
3
 10
-299.208
 20
-167.208
 30
0.0
 11
-299.208
 21
-167.065
 31
0.0
  0
LINE
  8
3
 62
3
 10
-299.208
 20
-167.065
 30
0.0
 11
-299.351
 21
-166.78
 31
0.0
  0
LINE
  8
3
 62
3
 10
-299.351
 20
-166.78
 30
0.0
 11
-299.636
 21
-166.637
 31
0.0
  0
LINE
  8
3
 62
3
 10
-299.636
 20
-166.637
 30
0.0
 11
-300.351
 21
-166.494
 31
0.0
  0
LINE
  8
3
 62
3
 10
-300.351
 20
-166.494
 30
0.0
 11
-300.636
 21
-166.351
 31
0.0
  0
LINE
  8
3
 62
3
 10
-300.636
 20
-166.351
 30
0.0
 11
-300.779
 21
-166.065
 31
0.0
  0
LINE
  8
3
 62
3
 10
-300.779
 20
-166.065
 30
0.0
 11
-300.636
 21
-165.78
 31
0.0
  0
LINE
  8
3
 62
3
 10
-300.636
 20
-165.78
 30
0.0
 11
-300.208
 21
-165.637
 31
0.0
  0
LINE
  8
3
 62
3
 10
-300.208
 20
-165.637
 30
0.0
 11
-299.779
 21
-165.637
 31
0.0
  0
LINE
  8
3
 62
3
 10
-299.779
 20
-165.637
 30
0.0
 11
-299.351
 21
-165.78
 31
0.0
  0
LINE
  8
3
 62
3
 10
-299.351
 20
-165.78
 30
0.0
 11
-299.208
 21
-166.065
 31
0.0
  0
LINE
  8
3
 62
3
 10
-298.351
 20
-166.494
 30
0.0
 11
-298.208
 21
-166.065
 31
0.0
  0
LINE
  8
3
 62
3
 10
-298.208
 20
-166.065
 30
0.0
 11
-297.922
 21
-165.78
 31
0.0
  0
LINE
  8
3
 62
3
 10
-297.922
 20
-165.78
 30
0.0
 11
-297.636
 21
-165.637
 31
0.0
  0
LINE
  8
3
 62
3
 10
-297.636
 20
-165.637
 30
0.0
 11
-297.208
 21
-165.637
 31
0.0
  0
LINE
  8
3
 62
3
 10
-297.208
 20
-165.637
 30
0.0
 11
-296.922
 21
-165.78
 31
0.0
  0
LINE
  8
3
 62
3
 10
-296.922
 20
-165.78
 30
0.0
 11
-296.779
 21
-165.922
 31
0.0
  0
LINE
  8
3
 62
3
 10
-296.779
 20
-165.922
 30
0.0
 11
-296.636
 21
-166.208
 31
0.0
  0
LINE
  8
3
 62
3
 10
-296.636
 20
-166.208
 30
0.0
 11
-296.636
 21
-166.494
 31
0.0
  0
LINE
  8
3
 62
3
 10
-296.636
 20
-166.494
 30
0.0
 11
-298.351
 21
-166.494
 31
0.0
  0
LINE
  8
3
 62
3
 10
-298.351
 20
-166.494
 30
0.0
 11
-298.351
 21
-166.78
 31
0.0
  0
LINE
  8
3
 62
3
 10
-298.351
 20
-166.78
 30
0.0
 11
-298.208
 21
-167.208
 31
0.0
  0
LINE
  8
3
 62
3
 10
-298.208
 20
-167.208
 30
0.0
 11
-297.922
 21
-167.494
 31
0.0
  0
LINE
  8
3
 62
3
 10
-297.922
 20
-167.494
 30
0.0
 11
-297.636
 21
-167.637
 31
0.0
  0
LINE
  8
3
 62
3
 10
-297.636
 20
-167.637
 30
0.0
 11
-297.208
 21
-167.637
 31
0.0
  0
LINE
  8
3
 62
3
 10
-297.208
 20
-167.637
 30
0.0
 11
-296.922
 21
-167.494
 31
0.0
  0
LINE
  8
3
 62
3
 10
-296.922
 20
-167.494
 30
0.0
 11
-296.636
 21
-167.208
 31
0.0
  0
LINE
  8
3
 62
3
 10
-295.779
 20
-167.637
 30
0.0
 11
-295.779
 21
-166.208
 31
0.0
  0
LINE
  8
3
 62
3
 10
-294.208
 20
-167.637
 30
0.0
 11
-294.208
 21
-166.208
 31
0.0
  0
LINE
  8
3
 62
3
 10
-294.208
 20
-166.208
 30
0.0
 11
-294.351
 21
-165.78
 31
0.0
  0
LINE
  8
3
 62
3
 10
-294.351
 20
-165.78
 30
0.0
 11
-294.636
 21
-165.637
 31
0.0
  0
LINE
  8
3
 62
3
 10
-294.636
 20
-165.637
 30
0.0
 11
-295.065
 21
-165.637
 31
0.0
  0
LINE
  8
3
 62
3
 10
-295.065
 20
-165.637
 30
0.0
 11
-295.351
 21
-165.78
 31
0.0
  0
LINE
  8
3
 62
3
 10
-295.351
 20
-165.78
 30
0.0
 11
-295.779
 21
-166.208
 31
0.0
  0
LINE
  8
3
 62
3
 10
-295.779
 20
-166.208
 30
0.0
 11
-295.779
 21
-165.637
 31
0.0
  0
LINE
  8
3
 62
3
 10
-296.494
 20
-164.637
 30
0.0
 11
-296.494
 21
-163.208
 31
0.0
  0
LINE
  8
3
 62
3
 10
-296.494
 20
-163.208
 30
0.0
 11
-296.494
 21
-162.065
 31
0.0
  0
LINE
  8
3
 62
3
 10
-296.494
 20
-162.065
 30
0.0
 11
-296.494
 21
-161.637
 31
0.0
  0
LINE
  8
3
 62
3
 10
-296.494
 20
-162.065
 30
0.0
 11
-296.208
 21
-161.78
 31
0.0
  0
LINE
  8
3
 62
3
 10
-296.208
 20
-161.78
 30
0.0
 11
-295.922
 21
-161.637
 31
0.0
  0
LINE
  8
3
 62
3
 10
-295.922
 20
-161.637
 30
0.0
 11
-295.494
 21
-161.637
 31
0.0
  0
LINE
  8
3
 62
3
 10
-295.494
 20
-161.637
 30
0.0
 11
-295.208
 21
-161.78
 31
0.0
  0
LINE
  8
3
 62
3
 10
-295.208
 20
-161.78
 30
0.0
 11
-294.922
 21
-162.065
 31
0.0
  0
LINE
  8
3
 62
3
 10
-294.922
 20
-162.065
 30
0.0
 11
-294.779
 21
-162.494
 31
0.0
  0
LINE
  8
3
 62
3
 10
-294.779
 20
-162.494
 30
0.0
 11
-294.779
 21
-162.78
 31
0.0
  0
LINE
  8
3
 62
3
 10
-294.779
 20
-162.78
 30
0.0
 11
-294.922
 21
-163.208
 31
0.0
  0
LINE
  8
3
 62
3
 10
-294.922
 20
-163.208
 30
0.0
 11
-295.208
 21
-163.494
 31
0.0
  0
LINE
  8
3
 62
3
 10
-295.208
 20
-163.494
 30
0.0
 11
-295.494
 21
-163.637
 31
0.0
  0
LINE
  8
3
 62
3
 10
-295.494
 20
-163.637
 30
0.0
 11
-295.922
 21
-163.637
 31
0.0
  0
LINE
  8
3
 62
3
 10
-295.922
 20
-163.637
 30
0.0
 11
-296.208
 21
-163.494
 31
0.0
  0
LINE
  8
3
 62
3
 10
-296.208
 20
-163.494
 30
0.0
 11
-296.494
 21
-163.208
 31
0.0
  0
LINE
  8
3
 62
3
 10
-293.779
 20
-162.494
 30
0.0
 11
-293.779
 21
-163.637
 31
0.0
  0
LINE
  8
3
 62
3
 10
-293.065
 20
-164.065
 30
0.0
 11
-292.779
 21
-164.351
 31
0.0
  0
LINE
  8
3
 62
3
 10
-292.779
 20
-164.351
 30
0.0
 11
-292.494
 21
-164.78
 31
0.0
  0
LINE
  8
3
 62
3
 10
-292.494
 20
-164.78
 30
0.0
 11
-292.208
 21
-165.351
 31
0.0
  0
LINE
  8
3
 62
3
 10
-292.208
 20
-165.351
 30
0.0
 11
-292.065
 21
-166.065
 31
0.0
  0
LINE
  8
3
 62
3
 10
-292.065
 20
-166.065
 30
0.0
 11
-292.065
 21
-166.637
 31
0.0
  0
LINE
  8
3
 62
3
 10
-292.065
 20
-166.637
 30
0.0
 11
-292.208
 21
-167.351
 31
0.0
  0
LINE
  8
3
 62
3
 10
-292.208
 20
-167.351
 30
0.0
 11
-292.494
 21
-167.922
 31
0.0
  0
LINE
  8
3
 62
3
 10
-292.494
 20
-167.922
 30
0.0
 11
-292.779
 21
-168.351
 31
0.0
  0
LINE
  8
3
 62
3
 10
-292.779
 20
-168.351
 30
0.0
 11
-293.065
 21
-168.637
 31
0.0
  0
LINE
  8
3
 62
3
 10
-291.922
 20
-162.78
 30
0.0
 11
-291.922
 21
-162.494
 31
0.0
  0
LINE
  8
3
 62
3
 10
-291.922
 20
-162.494
 30
0.0
 11
-291.779
 21
-162.065
 31
0.0
  0
LINE
  8
3
 62
3
 10
-291.779
 20
-162.065
 30
0.0
 11
-291.494
 21
-161.78
 31
0.0
  0
LINE
  8
3
 62
3
 10
-291.494
 20
-161.78
 30
0.0
 11
-291.208
 21
-161.637
 31
0.0
  0
LINE
  8
3
 62
3
 10
-291.208
 20
-161.637
 30
0.0
 11
-290.779
 21
-161.637
 31
0.0
  0
LINE
  8
3
 62
3
 10
-290.779
 20
-161.637
 30
0.0
 11
-290.494
 21
-161.78
 31
0.0
  0
LINE
  8
3
 62
3
 10
-290.494
 20
-161.78
 30
0.0
 11
-290.208
 21
-162.065
 31
0.0
  0
LINE
  8
3
 62
3
 10
-290.208
 20
-162.065
 30
0.0
 11
-290.065
 21
-162.494
 31
0.0
  0
LINE
  8
3
 62
3
 10
-290.065
 20
-162.494
 30
0.0
 11
-290.065
 21
-162.78
 31
0.0
  0
LINE
  8
3
 62
3
 10
-290.065
 20
-162.78
 30
0.0
 11
-290.208
 21
-163.208
 31
0.0
  0
LINE
  8
3
 62
3
 10
-290.208
 20
-163.208
 30
0.0
 11
-290.494
 21
-163.494
 31
0.0
  0
LINE
  8
3
 62
3
 10
-290.494
 20
-163.494
 30
0.0
 11
-290.779
 21
-163.637
 31
0.0
  0
LINE
  8
3
 62
3
 10
-290.779
 20
-163.637
 30
0.0
 11
-291.208
 21
-163.637
 31
0.0
  0
LINE
  8
3
 62
3
 10
-291.208
 20
-163.637
 30
0.0
 11
-291.494
 21
-163.494
 31
0.0
  0
LINE
  8
3
 62
3
 10
-291.494
 20
-163.494
 30
0.0
 11
-291.706
 21
-163.282
 31
0.0
  0
LINE
  8
3
 62
3
 10
-291.706
 20
-163.282
 30
0.0
 11
-291.779
 21
-163.208
 31
0.0
  0
LINE
  8
3
 62
3
 10
-291.779
 20
-163.208
 30
0.0
 11
-291.922
 21
-162.78
 31
0.0
  0
LINE
  8
3
 62
3
 10
-292.636
 20
-161.637
 30
0.0
 11
-293.065
 21
-161.637
 31
0.0
  0
LINE
  8
3
 62
3
 10
-293.065
 20
-161.637
 30
0.0
 11
-293.351
 21
-161.78
 31
0.0
  0
LINE
  8
3
 62
3
 10
-293.351
 20
-161.78
 30
0.0
 11
-293.636
 21
-162.065
 31
0.0
  0
LINE
  8
3
 62
3
 10
-293.636
 20
-162.065
 30
0.0
 11
-293.779
 21
-162.494
 31
0.0
  0
LINE
  8
3
 62
3
 10
-293.779
 20
-162.494
 30
0.0
 11
-293.779
 21
-161.637
 31
0.0
  0
LINE
  8
3
 62
3
 10
-293.351
 20
-174.065
 30
0.0
 11
-293.636
 21
-173.78
 31
0.0
  0
LINE
  8
3
 62
3
 10
-293.636
 20
-173.78
 30
0.0
 11
-293.922
 21
-173.637
 31
0.0
  0
LINE
  8
3
 62
3
 10
-293.922
 20
-173.637
 30
0.0
 11
-294.351
 21
-173.637
 31
0.0
  0
LINE
  8
3
 62
3
 10
-294.351
 20
-173.637
 30
0.0
 11
-294.636
 21
-173.78
 31
0.0
  0
LINE
  8
3
 62
3
 10
-294.636
 20
-173.78
 30
0.0
 11
-294.922
 21
-174.065
 31
0.0
  0
LINE
  8
3
 62
3
 10
-294.922
 20
-174.065
 30
0.0
 11
-295.065
 21
-174.494
 31
0.0
  0
LINE
  8
3
 62
3
 10
-295.065
 20
-174.494
 30
0.0
 11
-295.065
 21
-174.78
 31
0.0
  0
LINE
  8
3
 62
3
 10
-295.065
 20
-174.78
 30
0.0
 11
-294.922
 21
-175.208
 31
0.0
  0
LINE
  8
3
 62
3
 10
-294.922
 20
-175.208
 30
0.0
 11
-294.636
 21
-175.494
 31
0.0
  0
LINE
  8
3
 62
3
 10
-294.636
 20
-175.494
 30
0.0
 11
-294.351
 21
-175.637
 31
0.0
  0
LINE
  8
3
 62
3
 10
-294.351
 20
-175.637
 30
0.0
 11
-293.922
 21
-175.637
 31
0.0
  0
LINE
  8
3
 62
3
 10
-293.922
 20
-175.637
 30
0.0
 11
-293.636
 21
-175.494
 31
0.0
  0
LINE
  8
3
 62
3
 10
-293.636
 20
-175.494
 30
0.0
 11
-293.351
 21
-175.208
 31
0.0
  0
LINE
  8
3
 62
3
 10
-292.494
 20
-173.637
 30
0.0
 11
-292.494
 21
-175.065
 31
0.0
  0
LINE
  8
3
 62
3
 10
-292.494
 20
-175.065
 30
0.0
 11
-292.351
 21
-175.494
 31
0.0
  0
LINE
  8
3
 62
3
 10
-292.351
 20
-175.494
 30
0.0
 11
-292.065
 21
-175.637
 31
0.0
  0
LINE
  8
3
 62
3
 10
-292.065
 20
-175.637
 30
0.0
 11
-291.636
 21
-175.637
 31
0.0
  0
LINE
  8
3
 62
3
 10
-291.636
 20
-175.637
 30
0.0
 11
-291.351
 21
-175.494
 31
0.0
  0
LINE
  8
3
 62
3
 10
-291.351
 20
-175.494
 30
0.0
 11
-290.922
 21
-175.065
 31
0.0
  0
LINE
  8
3
 62
3
 10
-290.922
 20
-175.065
 30
0.0
 11
-290.922
 21
-175.637
 31
0.0
  0
LINE
  8
3
 62
3
 10
-290.922
 20
-175.065
 30
0.0
 11
-290.922
 21
-173.637
 31
0.0
  0
LINE
  8
3
 62
3
 10
-289.351
 20
-172.637
 30
0.0
 11
-289.351
 21
-173.637
 31
0.0
  0
LINE
  8
3
 62
3
 10
-288.779
 20
-173.637
 30
0.0
 11
-289.351
 21
-173.637
 31
0.0
  0
LINE
  8
3
 62
3
 10
-289.779
 20
-173.637
 30
0.0
 11
-289.351
 21
-173.637
 31
0.0
  0
LINE
  8
3
 62
3
 10
-289.351
 20
-173.637
 30
0.0
 11
-289.351
 21
-175.065
 31
0.0
  0
LINE
  8
3
 62
3
 10
-289.351
 20
-175.065
 30
0.0
 11
-289.208
 21
-175.494
 31
0.0
  0
LINE
  8
3
 62
3
 10
-289.208
 20
-175.494
 30
0.0
 11
-288.922
 21
-175.637
 31
0.0
  0
LINE
  8
3
 62
3
 10
-288.922
 20
-175.637
 30
0.0
 11
-288.636
 21
-175.637
 31
0.0
  0
LINE
  8
3
 62
3
 10
-287.636
 20
-177.637
 30
0.0
 11
-288.065
 21
-177.637
 31
0.0
  0
LINE
  8
3
 62
3
 10
-288.065
 20
-177.637
 30
0.0
 11
-288.351
 21
-177.78
 31
0.0
  0
LINE
  8
3
 62
3
 10
-288.351
 20
-177.78
 30
0.0
 11
-288.636
 21
-178.065
 31
0.0
  0
LINE
  8
3
 62
3
 10
-288.636
 20
-178.065
 30
0.0
 11
-288.779
 21
-178.494
 31
0.0
  0
LINE
  8
3
 62
3
 10
-288.779
 20
-178.494
 30
0.0
 11
-288.779
 21
-177.637
 31
0.0
  0
LINE
  8
3
 62
3
 10
-288.779
 20
-178.494
 30
0.0
 11
-288.779
 21
-179.637
 31
0.0
  0
LINE
  8
3
 62
3
 10
-289.779
 20
-179.208
 30
0.0
 11
-289.779
 21
-178.065
 31
0.0
  0
LINE
  8
3
 62
3
 10
-289.779
 20
-177.637
 30
0.0
 11
-289.779
 21
-178.065
 31
0.0
  0
LINE
  8
3
 62
3
 10
-289.779
 20
-178.065
 30
0.0
 11
-290.065
 21
-177.78
 31
0.0
  0
LINE
  8
3
 62
3
 10
-290.065
 20
-177.78
 30
0.0
 11
-290.351
 21
-177.637
 31
0.0
  0
LINE
  8
3
 62
3
 10
-290.351
 20
-177.637
 30
0.0
 11
-290.779
 21
-177.637
 31
0.0
  0
LINE
  8
3
 62
3
 10
-290.779
 20
-177.637
 30
0.0
 11
-291.065
 21
-177.78
 31
0.0
  0
LINE
  8
3
 62
3
 10
-291.065
 20
-177.78
 30
0.0
 11
-291.351
 21
-178.065
 31
0.0
  0
LINE
  8
3
 62
3
 10
-291.351
 20
-178.065
 30
0.0
 11
-291.494
 21
-178.494
 31
0.0
  0
LINE
  8
3
 62
3
 10
-291.494
 20
-178.494
 30
0.0
 11
-291.494
 21
-178.78
 31
0.0
  0
LINE
  8
3
 62
3
 10
-291.494
 20
-178.78
 30
0.0
 11
-291.351
 21
-179.208
 31
0.0
  0
LINE
  8
3
 62
3
 10
-291.351
 20
-179.208
 30
0.0
 11
-291.065
 21
-179.494
 31
0.0
  0
LINE
  8
3
 62
3
 10
-291.065
 20
-179.494
 30
0.0
 11
-290.779
 21
-179.637
 31
0.0
  0
LINE
  8
3
 62
3
 10
-290.779
 20
-179.637
 30
0.0
 11
-290.351
 21
-179.637
 31
0.0
  0
LINE
  8
3
 62
3
 10
-290.351
 20
-179.637
 30
0.0
 11
-290.065
 21
-179.494
 31
0.0
  0
LINE
  8
3
 62
3
 10
-290.065
 20
-179.494
 30
0.0
 11
-289.779
 21
-179.208
 31
0.0
  0
LINE
  8
3
 62
3
 10
-289.779
 20
-179.208
 30
0.0
 11
-289.779
 21
-179.637
 31
0.0
  0
LINE
  8
3
 62
3
 10
-292.351
 20
-178.065
 30
0.0
 11
-292.636
 21
-177.78
 31
0.0
  0
LINE
  8
3
 62
3
 10
-292.636
 20
-177.78
 30
0.0
 11
-292.922
 21
-177.637
 31
0.0
  0
LINE
  8
3
 62
3
 10
-292.922
 20
-177.637
 30
0.0
 11
-293.351
 21
-177.637
 31
0.0
  0
LINE
  8
3
 62
3
 10
-293.351
 20
-177.637
 30
0.0
 11
-293.636
 21
-177.78
 31
0.0
  0
LINE
  8
3
 62
3
 10
-293.636
 20
-177.78
 30
0.0
 11
-293.922
 21
-178.065
 31
0.0
  0
LINE
  8
3
 62
3
 10
-293.922
 20
-178.065
 30
0.0
 11
-294.065
 21
-178.494
 31
0.0
  0
LINE
  8
3
 62
3
 10
-294.065
 20
-178.494
 30
0.0
 11
-294.065
 21
-178.78
 31
0.0
  0
LINE
  8
3
 62
3
 10
-294.065
 20
-178.78
 30
0.0
 11
-293.922
 21
-179.208
 31
0.0
  0
LINE
  8
3
 62
3
 10
-293.922
 20
-179.208
 30
0.0
 11
-293.636
 21
-179.494
 31
0.0
  0
LINE
  8
3
 62
3
 10
-293.636
 20
-179.494
 30
0.0
 11
-293.351
 21
-179.637
 31
0.0
  0
LINE
  8
3
 62
3
 10
-293.351
 20
-179.637
 30
0.0
 11
-292.922
 21
-179.637
 31
0.0
  0
LINE
  8
3
 62
3
 10
-292.922
 20
-179.637
 30
0.0
 11
-292.636
 21
-179.494
 31
0.0
  0
LINE
  8
3
 62
3
 10
-292.636
 20
-179.494
 30
0.0
 11
-292.351
 21
-179.208
 31
0.0
  0
LINE
  8
3
 62
3
 10
-290.351
 20
-181.637
 30
0.0
 11
-290.779
 21
-181.637
 31
0.0
  0
LINE
  8
3
 62
3
 10
-290.779
 20
-181.637
 30
0.0
 11
-291.065
 21
-181.78
 31
0.0
  0
LINE
  8
3
 62
3
 10
-291.065
 20
-181.78
 30
0.0
 11
-291.351
 21
-182.065
 31
0.0
  0
LINE
  8
3
 62
3
 10
-291.351
 20
-182.065
 30
0.0
 11
-291.494
 21
-182.494
 31
0.0
  0
LINE
  8
3
 62
3
 10
-291.494
 20
-182.494
 30
0.0
 11
-291.494
 21
-181.637
 31
0.0
  0
LINE
  8
3
 62
3
 10
-291.494
 20
-182.494
 30
0.0
 11
-291.494
 21
-183.637
 31
0.0
  0
LINE
  8
3
 62
3
 10
-289.494
 20
-183.637
 30
0.0
 11
-289.494
 21
-181.637
 31
0.0
  0
LINE
  8
3
 62
3
 10
-289.494
 20
-180.922
 30
0.0
 11
-289.636
 21
-180.78
 31
0.0
  0
LINE
  8
3
 62
3
 10
-289.636
 20
-180.78
 30
0.0
 11
-289.494
 21
-180.637
 31
0.0
  0
LINE
  8
3
 62
3
 10
-289.494
 20
-180.637
 30
0.0
 11
-289.351
 21
-180.78
 31
0.0
  0
LINE
  8
3
 62
3
 10
-289.351
 20
-180.78
 30
0.0
 11
-289.494
 21
-180.922
 31
0.0
  0
LINE
  8
3
 62
3
 10
-288.494
 20
-181.637
 30
0.0
 11
-288.494
 21
-182.208
 31
0.0
  0
LINE
  8
3
 62
3
 10
-288.494
 20
-182.208
 30
0.0
 11
-288.065
 21
-181.78
 31
0.0
  0
LINE
  8
3
 62
3
 10
-288.065
 20
-181.78
 30
0.0
 11
-287.779
 21
-181.637
 31
0.0
  0
LINE
  8
3
 62
3
 10
-287.779
 20
-181.637
 30
0.0
 11
-287.351
 21
-181.637
 31
0.0
  0
LINE
  8
3
 62
3
 10
-287.351
 20
-181.637
 30
0.0
 11
-287.065
 21
-181.78
 31
0.0
  0
LINE
  8
3
 62
3
 10
-287.065
 20
-181.78
 30
0.0
 11
-286.922
 21
-182.208
 31
0.0
  0
LINE
  8
3
 62
3
 10
-286.922
 20
-182.208
 30
0.0
 11
-286.922
 21
-183.637
 31
0.0
  0
LINE
  8
3
 62
3
 10
-288.494
 20
-182.208
 30
0.0
 11
-288.494
 21
-183.637
 31
0.0
  0
LINE
  8
3
 62
3
 10
-289.065
 20
-189.351
 30
0.0
 11
-289.065
 21
-189.208
 31
0.0
  0
LINE
  8
3
 62
3
 10
-289.065
 20
-189.208
 30
0.0
 11
-288.922
 21
-188.922
 31
0.0
  0
LINE
  8
3
 62
3
 10
-288.922
 20
-188.922
 30
0.0
 11
-288.779
 21
-188.78
 31
0.0
  0
LINE
  8
3
 62
3
 10
-288.779
 20
-188.78
 30
0.0
 11
-288.494
 21
-188.637
 31
0.0
  0
LINE
  8
3
 62
3
 10
-288.494
 20
-188.637
 30
0.0
 11
-287.922
 21
-188.637
 31
0.0
  0
LINE
  8
3
 62
3
 10
-287.922
 20
-188.637
 30
0.0
 11
-287.636
 21
-188.78
 31
0.0
  0
LINE
  8
3
 62
3
 10
-287.636
 20
-188.78
 30
0.0
 11
-287.494
 21
-188.922
 31
0.0
  0
LINE
  8
3
 62
3
 10
-287.494
 20
-188.922
 30
0.0
 11
-287.351
 21
-189.208
 31
0.0
  0
LINE
  8
3
 62
3
 10
-287.351
 20
-189.208
 30
0.0
 11
-287.351
 21
-189.494
 31
0.0
  0
LINE
  8
3
 62
3
 10
-287.351
 20
-189.494
 30
0.0
 11
-287.494
 21
-189.78
 31
0.0
  0
LINE
  8
3
 62
3
 10
-287.494
 20
-189.78
 30
0.0
 11
-287.779
 21
-190.208
 31
0.0
  0
LINE
  8
3
 62
3
 10
-287.779
 20
-190.208
 30
0.0
 11
-289.208
 21
-191.637
 31
0.0
  0
LINE
  8
3
 62
3
 10
-289.208
 20
-191.637
 30
0.0
 11
-287.208
 21
-191.637
 31
0.0
  0
LINE
  8
3
 62
3
 10
-290.065
 20
-191.637
 30
0.0
 11
-290.85
 21
-190.637
 31
0.0
  0
LINE
  8
3
 62
3
 10
-290.85
 20
-190.637
 30
0.0
 11
-290.065
 21
-189.637
 31
0.0
  0
LINE
  8
3
 62
3
 10
-290.85
 20
-190.637
 30
0.0
 11
-291.636
 21
-191.637
 31
0.0
  0
LINE
  8
3
 62
3
 10
-292.494
 20
-190.351
 30
0.0
 11
-292.636
 21
-191.065
 31
0.0
  0
LINE
  8
3
 62
3
 10
-292.636
 20
-191.065
 30
0.0
 11
-292.922
 21
-191.494
 31
0.0
  0
LINE
  8
3
 62
3
 10
-292.922
 20
-191.494
 30
0.0
 11
-293.351
 21
-191.637
 31
0.0
  0
LINE
  8
3
 62
3
 10
-293.351
 20
-191.637
 30
0.0
 11
-293.636
 21
-191.637
 31
0.0
  0
LINE
  8
3
 62
3
 10
-293.636
 20
-191.637
 30
0.0
 11
-294.065
 21
-191.494
 31
0.0
  0
LINE
  8
3
 62
3
 10
-294.065
 20
-191.494
 30
0.0
 11
-294.351
 21
-191.065
 31
0.0
  0
LINE
  8
3
 62
3
 10
-294.351
 20
-191.065
 30
0.0
 11
-294.494
 21
-190.351
 31
0.0
  0
LINE
  8
3
 62
3
 10
-294.494
 20
-190.351
 30
0.0
 11
-294.494
 21
-189.922
 31
0.0
  0
LINE
  8
3
 62
3
 10
-294.494
 20
-189.922
 30
0.0
 11
-294.351
 21
-189.208
 31
0.0
  0
LINE
  8
3
 62
3
 10
-294.351
 20
-189.208
 30
0.0
 11
-294.065
 21
-188.78
 31
0.0
  0
LINE
  8
3
 62
3
 10
-294.065
 20
-188.78
 30
0.0
 11
-293.636
 21
-188.637
 31
0.0
  0
LINE
  8
3
 62
3
 10
-293.636
 20
-188.637
 30
0.0
 11
-293.351
 21
-188.637
 31
0.0
  0
LINE
  8
3
 62
3
 10
-293.351
 20
-188.637
 30
0.0
 11
-292.922
 21
-188.78
 31
0.0
  0
LINE
  8
3
 62
3
 10
-292.922
 20
-188.78
 30
0.0
 11
-292.636
 21
-189.208
 31
0.0
  0
LINE
  8
3
 62
3
 10
-292.636
 20
-189.208
 30
0.0
 11
-292.494
 21
-189.922
 31
0.0
  0
LINE
  8
3
 62
3
 10
-292.494
 20
-189.922
 30
0.0
 11
-292.494
 21
-190.351
 31
0.0
  0
LINE
  8
3
 62
3
 10
-290.85
 20
-190.637
 30
0.0
 11
-291.636
 21
-189.637
 31
0.0
  0
LINE
  8
3
 62
3
 10
-294.208
 20
-184.637
 30
0.0
 11
-294.208
 21
-183.208
 31
0.0
  0
LINE
  8
3
 62
3
 10
-294.208
 20
-183.208
 30
0.0
 11
-294.208
 21
-182.065
 31
0.0
  0
LINE
  8
3
 62
3
 10
-294.208
 20
-182.065
 30
0.0
 11
-294.208
 21
-181.637
 31
0.0
  0
LINE
  8
3
 62
3
 10
-294.208
 20
-182.065
 30
0.0
 11
-293.922
 21
-181.78
 31
0.0
  0
LINE
  8
3
 62
3
 10
-293.922
 20
-181.78
 30
0.0
 11
-293.636
 21
-181.637
 31
0.0
  0
LINE
  8
3
 62
3
 10
-293.636
 20
-181.637
 30
0.0
 11
-293.208
 21
-181.637
 31
0.0
  0
LINE
  8
3
 62
3
 10
-293.208
 20
-181.637
 30
0.0
 11
-292.922
 21
-181.78
 31
0.0
  0
LINE
  8
3
 62
3
 10
-292.922
 20
-181.78
 30
0.0
 11
-292.636
 21
-182.065
 31
0.0
  0
LINE
  8
3
 62
3
 10
-292.636
 20
-182.065
 30
0.0
 11
-292.494
 21
-182.494
 31
0.0
  0
LINE
  8
3
 62
3
 10
-292.494
 20
-182.494
 30
0.0
 11
-292.494
 21
-182.78
 31
0.0
  0
LINE
  8
3
 62
3
 10
-292.494
 20
-182.78
 30
0.0
 11
-292.636
 21
-183.208
 31
0.0
  0
LINE
  8
3
 62
3
 10
-292.636
 20
-183.208
 30
0.0
 11
-292.922
 21
-183.494
 31
0.0
  0
LINE
  8
3
 62
3
 10
-292.922
 20
-183.494
 30
0.0
 11
-293.208
 21
-183.637
 31
0.0
  0
LINE
  8
3
 62
3
 10
-293.208
 20
-183.637
 30
0.0
 11
-293.636
 21
-183.637
 31
0.0
  0
LINE
  8
3
 62
3
 10
-293.636
 20
-183.637
 30
0.0
 11
-293.922
 21
-183.494
 31
0.0
  0
LINE
  8
3
 62
3
 10
-293.922
 20
-183.494
 30
0.0
 11
-294.208
 21
-183.208
 31
0.0
  0
LINE
  8
3
 62
3
 10
-286.922
 20
-177.637
 30
0.0
 11
-286.065
 21
-179.637
 31
0.0
  0
LINE
  8
3
 62
3
 10
-286.065
 20
-179.637
 30
0.0
 11
-285.208
 21
-177.637
 31
0.0
  0
LINE
  8
3
 62
3
 10
-285.351
 20
-180.637
 30
0.0
 11
-285.351
 21
-181.637
 31
0.0
  0
LINE
  8
3
 62
3
 10
-284.779
 20
-181.637
 30
0.0
 11
-285.351
 21
-181.637
 31
0.0
  0
LINE
  8
3
 62
3
 10
-285.779
 20
-181.637
 30
0.0
 11
-285.351
 21
-181.637
 31
0.0
  0
LINE
  8
3
 62
3
 10
-285.351
 20
-181.637
 30
0.0
 11
-285.351
 21
-183.065
 31
0.0
  0
LINE
  8
3
 62
3
 10
-285.351
 20
-183.065
 30
0.0
 11
-285.208
 21
-183.494
 31
0.0
  0
LINE
  8
3
 62
3
 10
-285.208
 20
-183.494
 30
0.0
 11
-284.922
 21
-183.637
 31
0.0
  0
LINE
  8
3
 62
3
 10
-284.922
 20
-183.637
 30
0.0
 11
-284.636
 21
-183.637
 31
0.0
  0
LINE
  8
3
 62
3
 10
-284.636
 20
-178.494
 30
0.0
 11
-282.922
 21
-178.494
 31
0.0
  0
LINE
  8
3
 62
3
 10
-282.922
 20
-178.494
 30
0.0
 11
-282.922
 21
-178.208
 31
0.0
  0
LINE
  8
3
 62
3
 10
-282.922
 20
-178.208
 30
0.0
 11
-283.065
 21
-177.922
 31
0.0
  0
LINE
  8
3
 62
3
 10
-283.065
 20
-177.922
 30
0.0
 11
-283.208
 21
-177.78
 31
0.0
  0
LINE
  8
3
 62
3
 10
-283.208
 20
-177.78
 30
0.0
 11
-283.494
 21
-177.637
 31
0.0
  0
LINE
  8
3
 62
3
 10
-283.494
 20
-177.637
 30
0.0
 11
-283.922
 21
-177.637
 31
0.0
  0
LINE
  8
3
 62
3
 10
-283.922
 20
-177.637
 30
0.0
 11
-284.208
 21
-177.78
 31
0.0
  0
LINE
  8
3
 62
3
 10
-284.208
 20
-177.78
 30
0.0
 11
-284.494
 21
-178.065
 31
0.0
  0
LINE
  8
3
 62
3
 10
-284.494
 20
-178.065
 30
0.0
 11
-284.636
 21
-178.494
 31
0.0
  0
LINE
  8
3
 62
3
 10
-284.636
 20
-178.494
 30
0.0
 11
-284.636
 21
-178.78
 31
0.0
  0
LINE
  8
3
 62
3
 10
-284.636
 20
-178.78
 30
0.0
 11
-284.494
 21
-179.208
 31
0.0
  0
LINE
  8
3
 62
3
 10
-284.494
 20
-179.208
 30
0.0
 11
-284.208
 21
-179.494
 31
0.0
  0
LINE
  8
3
 62
3
 10
-284.208
 20
-179.494
 30
0.0
 11
-283.922
 21
-179.637
 31
0.0
  0
LINE
  8
3
 62
3
 10
-283.922
 20
-179.637
 30
0.0
 11
-283.494
 21
-179.637
 31
0.0
  0
LINE
  8
3
 62
3
 10
-283.494
 20
-179.637
 30
0.0
 11
-283.208
 21
-179.494
 31
0.0
  0
LINE
  8
3
 62
3
 10
-283.208
 20
-179.494
 30
0.0
 11
-282.922
 21
-179.208
 31
0.0
  0
LINE
  8
3
 62
3
 10
-284.494
 20
-189.208
 30
0.0
 11
-284.351
 21
-189.922
 31
0.0
  0
LINE
  8
3
 62
3
 10
-284.351
 20
-189.922
 30
0.0
 11
-284.351
 21
-190.351
 31
0.0
  0
LINE
  8
3
 62
3
 10
-284.351
 20
-190.351
 30
0.0
 11
-284.494
 21
-191.065
 31
0.0
  0
LINE
  8
3
 62
3
 10
-284.494
 20
-191.065
 30
0.0
 11
-284.779
 21
-191.494
 31
0.0
  0
LINE
  8
3
 62
3
 10
-284.779
 20
-191.494
 30
0.0
 11
-285.208
 21
-191.637
 31
0.0
  0
LINE
  8
3
 62
3
 10
-285.208
 20
-191.637
 30
0.0
 11
-285.494
 21
-191.637
 31
0.0
  0
LINE
  8
3
 62
3
 10
-285.494
 20
-191.637
 30
0.0
 11
-285.922
 21
-191.494
 31
0.0
  0
LINE
  8
3
 62
3
 10
-285.922
 20
-191.494
 30
0.0
 11
-286.208
 21
-191.065
 31
0.0
  0
LINE
  8
3
 62
3
 10
-286.208
 20
-191.065
 30
0.0
 11
-286.351
 21
-190.351
 31
0.0
  0
LINE
  8
3
 62
3
 10
-286.351
 20
-190.351
 30
0.0
 11
-286.351
 21
-189.922
 31
0.0
  0
LINE
  8
3
 62
3
 10
-286.351
 20
-189.922
 30
0.0
 11
-286.208
 21
-189.208
 31
0.0
  0
LINE
  8
3
 62
3
 10
-286.208
 20
-189.208
 30
0.0
 11
-285.922
 21
-188.78
 31
0.0
  0
LINE
  8
3
 62
3
 10
-285.922
 20
-188.78
 30
0.0
 11
-285.494
 21
-188.637
 31
0.0
  0
LINE
  8
3
 62
3
 10
-285.494
 20
-188.637
 30
0.0
 11
-285.208
 21
-188.637
 31
0.0
  0
LINE
  8
3
 62
3
 10
-285.208
 20
-188.637
 30
0.0
 11
-284.779
 21
-188.78
 31
0.0
  0
LINE
  8
3
 62
3
 10
-284.779
 20
-188.78
 30
0.0
 11
-284.494
 21
-189.208
 31
0.0
  0
LINE
  8
3
 62
3
 10
-283.494
 20
-191.637
 30
0.0
 11
-283.494
 21
-190.208
 31
0.0
  0
LINE
  8
3
 62
3
 10
-283.494
 20
-189.637
 30
0.0
 11
-283.494
 21
-190.208
 31
0.0
  0
LINE
  8
3
 62
3
 10
-283.494
 20
-190.208
 30
0.0
 11
-283.065
 21
-189.78
 31
0.0
  0
LINE
  8
3
 62
3
 10
-283.065
 20
-189.78
 30
0.0
 11
-282.779
 21
-189.637
 31
0.0
  0
LINE
  8
3
 62
3
 10
-282.779
 20
-189.637
 30
0.0
 11
-282.351
 21
-189.637
 31
0.0
  0
LINE
  8
3
 62
3
 10
-282.351
 20
-189.637
 30
0.0
 11
-282.065
 21
-189.78
 31
0.0
  0
LINE
  8
3
 62
3
 10
-282.065
 20
-189.78
 30
0.0
 11
-281.922
 21
-190.208
 31
0.0
  0
LINE
  8
3
 62
3
 10
-281.922
 20
-190.208
 30
0.0
 11
-281.494
 21
-189.78
 31
0.0
  0
LINE
  8
3
 62
3
 10
-281.494
 20
-189.78
 30
0.0
 11
-281.208
 21
-189.637
 31
0.0
  0
LINE
  8
3
 62
3
 10
-281.208
 20
-189.637
 30
0.0
 11
-280.779
 21
-189.637
 31
0.0
  0
LINE
  8
3
 62
3
 10
-280.779
 20
-189.637
 30
0.0
 11
-280.494
 21
-189.78
 31
0.0
  0
LINE
  8
3
 62
3
 10
-280.494
 20
-189.78
 30
0.0
 11
-280.351
 21
-190.208
 31
0.0
  0
LINE
  8
3
 62
3
 10
-280.351
 20
-190.208
 30
0.0
 11
-280.351
 21
-191.637
 31
0.0
  0
LINE
  8
3
 62
3
 10
-281.922
 20
-191.637
 30
0.0
 11
-281.922
 21
-190.208
 31
0.0
  0
LINE
  8
3
 62
3
 10
-298.351
 20
-188.065
 30
0.0
 11
-298.636
 21
-188.351
 31
0.0
  0
LINE
  8
3
 62
3
 10
-298.636
 20
-188.351
 30
0.0
 11
-298.922
 21
-188.78
 31
0.0
  0
LINE
  8
3
 62
3
 10
-298.922
 20
-188.78
 30
0.0
 11
-299.208
 21
-189.351
 31
0.0
  0
LINE
  8
3
 62
3
 10
-299.208
 20
-189.351
 30
0.0
 11
-299.351
 21
-190.065
 31
0.0
  0
LINE
  8
3
 62
3
 10
-299.351
 20
-190.065
 30
0.0
 11
-299.351
 21
-190.637
 31
0.0
  0
LINE
  8
3
 62
3
 10
-299.351
 20
-190.637
 30
0.0
 11
-299.208
 21
-191.351
 31
0.0
  0
LINE
  8
3
 62
3
 10
-299.208
 20
-191.351
 30
0.0
 11
-298.922
 21
-191.922
 31
0.0
  0
LINE
  8
3
 62
3
 10
-298.922
 20
-191.922
 30
0.0
 11
-298.636
 21
-192.351
 31
0.0
  0
LINE
  8
3
 62
3
 10
-298.636
 20
-192.351
 30
0.0
 11
-298.351
 21
-192.637
 31
0.0
  0
LINE
  8
3
 62
3
 10
-295.351
 20
-191.637
 30
0.0
 11
-297.351
 21
-191.637
 31
0.0
  0
LINE
  8
3
 62
3
 10
-297.351
 20
-191.637
 30
0.0
 11
-295.922
 21
-190.208
 31
0.0
  0
LINE
  8
3
 62
3
 10
-295.922
 20
-190.208
 30
0.0
 11
-295.636
 21
-189.78
 31
0.0
  0
LINE
  8
3
 62
3
 10
-295.636
 20
-189.78
 30
0.0
 11
-295.494
 21
-189.494
 31
0.0
  0
LINE
  8
3
 62
3
 10
-295.494
 20
-189.494
 30
0.0
 11
-295.494
 21
-189.208
 31
0.0
  0
LINE
  8
3
 62
3
 10
-295.494
 20
-189.208
 30
0.0
 11
-295.636
 21
-188.922
 31
0.0
  0
LINE
  8
3
 62
3
 10
-295.636
 20
-188.922
 30
0.0
 11
-295.779
 21
-188.78
 31
0.0
  0
LINE
  8
3
 62
3
 10
-295.779
 20
-188.78
 30
0.0
 11
-296.065
 21
-188.637
 31
0.0
  0
LINE
  8
3
 62
3
 10
-296.065
 20
-188.637
 30
0.0
 11
-296.636
 21
-188.637
 31
0.0
  0
LINE
  8
3
 62
3
 10
-296.636
 20
-188.637
 30
0.0
 11
-296.922
 21
-188.78
 31
0.0
  0
LINE
  8
3
 62
3
 10
-296.922
 20
-188.78
 30
0.0
 11
-297.065
 21
-188.922
 31
0.0
  0
LINE
  8
3
 62
3
 10
-297.065
 20
-188.922
 30
0.0
 11
-297.208
 21
-189.208
 31
0.0
  0
LINE
  8
3
 62
3
 10
-297.208
 20
-189.208
 30
0.0
 11
-297.208
 21
-189.351
 31
0.0
  0
LINE
  8
3
 62
3
 10
-306.208
 20
-182.351
 30
0.0
 11
-308.779
 21
-182.351
 31
0.0
  0
LINE
  8
3
 62
3
 10
-308.636
 20
-178.351
 30
0.0
 11
-306.065
 21
-178.351
 31
0.0
  0
LINE
  8
3
 62
3
 10
-307.065
 20
-174.351
 30
0.0
 11
-309.636
 21
-174.351
 31
0.0
  0
LINE
  8
3
 62
3
 10
-319.065
 20
-167.208
 30
0.0
 11
-319.351
 21
-167.494
 31
0.0
  0
LINE
  8
3
 62
3
 10
-319.351
 20
-167.494
 30
0.0
 11
-319.636
 21
-167.637
 31
0.0
  0
LINE
  8
3
 62
3
 10
-319.636
 20
-167.637
 30
0.0
 11
-320.065
 21
-167.637
 31
0.0
  0
LINE
  8
3
 62
3
 10
-320.065
 20
-167.637
 30
0.0
 11
-320.351
 21
-167.494
 31
0.0
  0
LINE
  8
3
 62
3
 10
-320.351
 20
-167.494
 30
0.0
 11
-320.636
 21
-167.208
 31
0.0
  0
LINE
  8
3
 62
3
 10
-320.636
 20
-167.208
 30
0.0
 11
-320.779
 21
-166.78
 31
0.0
  0
LINE
  8
3
 62
3
 10
-320.779
 20
-166.78
 30
0.0
 11
-320.779
 21
-166.494
 31
0.0
  0
LINE
  8
3
 62
3
 10
-320.779
 20
-166.494
 30
0.0
 11
-320.636
 21
-166.065
 31
0.0
  0
LINE
  8
3
 62
3
 10
-320.636
 20
-166.065
 30
0.0
 11
-320.351
 21
-165.78
 31
0.0
  0
LINE
  8
3
 62
3
 10
-320.351
 20
-165.78
 30
0.0
 11
-320.065
 21
-165.637
 31
0.0
  0
LINE
  8
3
 62
3
 10
-320.065
 20
-165.637
 30
0.0
 11
-319.636
 21
-165.637
 31
0.0
  0
LINE
  8
3
 62
3
 10
-319.636
 20
-165.637
 30
0.0
 11
-319.351
 21
-165.78
 31
0.0
  0
LINE
  8
3
 62
3
 10
-319.351
 20
-165.78
 30
0.0
 11
-319.208
 21
-165.922
 31
0.0
  0
LINE
  8
3
 62
3
 10
-319.208
 20
-165.922
 30
0.0
 11
-319.065
 21
-166.208
 31
0.0
  0
LINE
  8
3
 62
3
 10
-319.065
 20
-166.208
 30
0.0
 11
-319.065
 21
-166.494
 31
0.0
  0
LINE
  8
3
 62
3
 10
-319.065
 20
-166.494
 30
0.0
 11
-320.779
 21
-166.494
 31
0.0
  0
LINE
  8
3
 62
3
 10
-321.636
 20
-167.637
 30
0.0
 11
-321.922
 21
-167.637
 31
0.0
  0
LINE
  8
3
 62
3
 10
-321.922
 20
-167.637
 30
0.0
 11
-322.208
 21
-167.494
 31
0.0
  0
LINE
  8
3
 62
3
 10
-322.208
 20
-167.494
 30
0.0
 11
-322.351
 21
-167.065
 31
0.0
  0
LINE
  8
3
 62
3
 10
-322.351
 20
-167.065
 30
0.0
 11
-322.351
 21
-165.637
 31
0.0
  0
LINE
  8
3
 62
3
 10
-322.351
 20
-165.637
 30
0.0
 11
-322.779
 21
-165.637
 31
0.0
  0
LINE
  8
3
 62
3
 10
-322.351
 20
-164.637
 30
0.0
 11
-322.351
 21
-165.637
 31
0.0
  0
LINE
  8
3
 62
3
 10
-322.351
 20
-165.637
 30
0.0
 11
-321.779
 21
-165.637
 31
0.0
  0
LINE
  8
3
 62
3
 10
-320.636
 20
-163.494
 30
0.0
 11
-320.922
 21
-163.637
 31
0.0
  0
LINE
  8
3
 62
3
 10
-320.922
 20
-163.637
 30
0.0
 11
-321.494
 21
-163.637
 31
0.0
  0
LINE
  8
3
 62
3
 10
-321.494
 20
-163.637
 30
0.0
 11
-321.779
 21
-163.494
 31
0.0
  0
LINE
  8
3
 62
3
 10
-321.779
 20
-163.494
 30
0.0
 11
-322.065
 21
-163.208
 31
0.0
  0
LINE
  8
3
 62
3
 10
-322.065
 20
-163.208
 30
0.0
 11
-322.208
 21
-162.922
 31
0.0
  0
LINE
  8
3
 62
3
 10
-322.208
 20
-162.922
 30
0.0
 11
-322.351
 21
-162.494
 31
0.0
  0
LINE
  8
3
 62
3
 10
-322.351
 20
-162.494
 30
0.0
 11
-322.351
 21
-161.78
 31
0.0
  0
LINE
  8
3
 62
3
 10
-322.351
 20
-161.78
 30
0.0
 11
-322.208
 21
-161.351
 31
0.0
  0
LINE
  8
3
 62
3
 10
-322.208
 20
-161.351
 30
0.0
 11
-322.065
 21
-161.065
 31
0.0
  0
LINE
  8
3
 62
3
 10
-322.065
 20
-161.065
 30
0.0
 11
-321.779
 21
-160.78
 31
0.0
  0
LINE
  8
3
 62
3
 10
-321.779
 20
-160.78
 30
0.0
 11
-321.494
 21
-160.637
 31
0.0
  0
LINE
  8
3
 62
3
 10
-321.494
 20
-160.637
 30
0.0
 11
-320.922
 21
-160.637
 31
0.0
  0
LINE
  8
3
 62
3
 10
-320.922
 20
-160.637
 30
0.0
 11
-320.636
 21
-160.78
 31
0.0
  0
LINE
  8
3
 62
3
 10
-320.636
 20
-160.78
 30
0.0
 11
-320.351
 21
-161.065
 31
0.0
  0
LINE
  8
3
 62
3
 10
-320.351
 20
-161.065
 30
0.0
 11
-320.208
 21
-161.351
 31
0.0
  0
LINE
  8
3
 62
3
 10
-320.208
 20
-161.351
 30
0.0
 11
-320.065
 21
-161.78
 31
0.0
  0
LINE
  8
3
 62
3
 10
-320.065
 20
-161.78
 30
0.0
 11
-320.065
 21
-162.494
 31
0.0
  0
LINE
  8
3
 62
3
 10
-320.065
 20
-162.494
 30
0.0
 11
-320.208
 21
-162.922
 31
0.0
  0
LINE
  8
3
 62
3
 10
-320.208
 20
-162.922
 30
0.0
 11
-320.351
 21
-163.208
 31
0.0
  0
LINE
  8
3
 62
3
 10
-320.351
 20
-163.208
 30
0.0
 11
-320.636
 21
-163.494
 31
0.0
  0
LINE
  8
3
 62
3
 10
-319.208
 20
-163.637
 30
0.0
 11
-319.208
 21
-162.494
 31
0.0
  0
LINE
  8
3
 62
3
 10
-319.208
 20
-161.637
 30
0.0
 11
-319.208
 21
-162.494
 31
0.0
  0
LINE
  8
3
 62
3
 10
-319.208
 20
-162.494
 30
0.0
 11
-319.065
 21
-162.065
 31
0.0
  0
LINE
  8
3
 62
3
 10
-319.065
 20
-162.065
 30
0.0
 11
-318.779
 21
-161.78
 31
0.0
  0
LINE
  8
3
 62
3
 10
-318.779
 20
-161.78
 30
0.0
 11
-318.494
 21
-161.637
 31
0.0
  0
LINE
  8
3
 62
3
 10
-318.494
 20
-161.637
 30
0.0
 11
-318.065
 21
-161.637
 31
0.0
  0
LINE
  8
3
 62
3
 10
-315.636
 20
-162.065
 30
0.0
 11
-315.922
 21
-161.78
 31
0.0
  0
LINE
  8
3
 62
3
 10
-315.922
 20
-161.78
 30
0.0
 11
-316.208
 21
-161.637
 31
0.0
  0
LINE
  8
3
 62
3
 10
-316.208
 20
-161.637
 30
0.0
 11
-316.636
 21
-161.637
 31
0.0
  0
LINE
  8
3
 62
3
 10
-316.636
 20
-161.637
 30
0.0
 11
-316.922
 21
-161.78
 31
0.0
  0
LINE
  8
3
 62
3
 10
-316.922
 20
-161.78
 30
0.0
 11
-317.208
 21
-162.065
 31
0.0
  0
LINE
  8
3
 62
3
 10
-317.208
 20
-162.065
 30
0.0
 11
-317.351
 21
-162.494
 31
0.0
  0
LINE
  8
3
 62
3
 10
-317.351
 20
-162.494
 30
0.0
 11
-317.351
 21
-162.78
 31
0.0
  0
LINE
  8
3
 62
3
 10
-317.351
 20
-162.78
 30
0.0
 11
-317.208
 21
-163.208
 31
0.0
  0
LINE
  8
3
 62
3
 10
-317.208
 20
-163.208
 30
0.0
 11
-316.922
 21
-163.494
 31
0.0
  0
LINE
  8
3
 62
3
 10
-316.922
 20
-163.494
 30
0.0
 11
-316.636
 21
-163.637
 31
0.0
  0
LINE
  8
3
 62
3
 10
-316.636
 20
-163.637
 30
0.0
 11
-316.208
 21
-163.637
 31
0.0
  0
LINE
  8
3
 62
3
 10
-316.208
 20
-163.637
 30
0.0
 11
-315.922
 21
-163.494
 31
0.0
  0
LINE
  8
3
 62
3
 10
-315.922
 20
-163.494
 30
0.0
 11
-315.636
 21
-163.208
 31
0.0
  0
LINE
  8
3
 62
3
 10
-316.922
 20
-164.494
 30
0.0
 11
-316.636
 21
-164.637
 31
0.0
  0
LINE
  8
3
 62
3
 10
-316.636
 20
-164.637
 30
0.0
 11
-316.208
 21
-164.637
 31
0.0
  0
LINE
  8
3
 62
3
 10
-316.208
 20
-164.637
 30
0.0
 11
-315.922
 21
-164.494
 31
0.0
  0
LINE
  8
3
 62
3
 10
-315.922
 20
-164.494
 30
0.0
 11
-315.779
 21
-164.351
 31
0.0
  0
LINE
  8
3
 62
3
 10
-315.779
 20
-164.351
 30
0.0
 11
-315.636
 21
-163.922
 31
0.0
  0
LINE
  8
3
 62
3
 10
-315.636
 20
-163.922
 30
0.0
 11
-315.636
 21
-162.065
 31
0.0
  0
LINE
  8
3
 62
3
 10
-315.636
 20
-162.065
 30
0.0
 11
-315.636
 21
-161.637
 31
0.0
  0
LINE
  8
3
 62
3
 10
-311.922
 20
-160.637
 30
0.0
 11
-311.922
 21
-163.637
 31
0.0
  0
LINE
  8
3
 62
3
 10
-327.065
 20
-164.637
 30
0.0
 11
-326.779
 21
-164.351
 31
0.0
  0
LINE
  8
3
 62
3
 10
-326.779
 20
-164.351
 30
0.0
 11
-326.494
 21
-163.922
 31
0.0
  0
LINE
  8
3
 62
3
 10
-326.494
 20
-163.922
 30
0.0
 11
-326.208
 21
-163.351
 31
0.0
  0
LINE
  8
3
 62
3
 10
-326.208
 20
-163.351
 30
0.0
 11
-326.065
 21
-162.637
 31
0.0
  0
LINE
  8
3
 62
3
 10
-326.065
 20
-162.637
 30
0.0
 11
-326.065
 21
-162.065
 31
0.0
  0
LINE
  8
3
 62
3
 10
-326.065
 20
-162.065
 30
0.0
 11
-326.208
 21
-161.351
 31
0.0
  0
LINE
  8
3
 62
3
 10
-326.208
 20
-161.351
 30
0.0
 11
-326.494
 21
-160.78
 31
0.0
  0
LINE
  8
3
 62
3
 10
-326.494
 20
-160.78
 30
0.0
 11
-326.779
 21
-160.351
 31
0.0
  0
LINE
  8
3
 62
3
 10
-326.779
 20
-160.351
 30
0.0
 11
-327.065
 21
-160.065
 31
0.0
  0
LINE
  8
3
 62
3
 10
-327.922
 20
-161.351
 30
0.0
 11
-328.065
 21
-161.065
 31
0.0
  0
LINE
  8
3
 62
3
 10
-328.065
 20
-161.065
 30
0.0
 11
-328.351
 21
-160.78
 31
0.0
  0
LINE
  8
3
 62
3
 10
-328.351
 20
-160.78
 30
0.0
 11
-328.636
 21
-160.637
 31
0.0
  0
LINE
  8
3
 62
3
 10
-328.636
 20
-160.637
 30
0.0
 11
-329.208
 21
-160.637
 31
0.0
  0
LINE
  8
3
 62
3
 10
-329.208
 20
-160.637
 30
0.0
 11
-329.494
 21
-160.78
 31
0.0
  0
LINE
  8
3
 62
3
 10
-329.494
 20
-160.78
 30
0.0
 11
-329.779
 21
-161.065
 31
0.0
  0
LINE
  8
3
 62
3
 10
-329.779
 20
-161.065
 30
0.0
 11
-329.922
 21
-161.351
 31
0.0
  0
LINE
  8
3
 62
3
 10
-329.922
 20
-161.351
 30
0.0
 11
-330.065
 21
-161.78
 31
0.0
  0
LINE
  8
3
 62
3
 10
-330.065
 20
-161.78
 30
0.0
 11
-330.065
 21
-162.494
 31
0.0
  0
LINE
  8
3
 62
3
 10
-330.065
 20
-162.494
 30
0.0
 11
-329.922
 21
-162.922
 31
0.0
  0
LINE
  8
3
 62
3
 10
-329.922
 20
-162.922
 30
0.0
 11
-329.779
 21
-163.208
 31
0.0
  0
LINE
  8
3
 62
3
 10
-329.779
 20
-163.208
 30
0.0
 11
-329.494
 21
-163.494
 31
0.0
  0
LINE
  8
3
 62
3
 10
-329.494
 20
-163.494
 30
0.0
 11
-329.208
 21
-163.637
 31
0.0
  0
LINE
  8
3
 62
3
 10
-329.208
 20
-163.637
 30
0.0
 11
-328.636
 21
-163.637
 31
0.0
  0
LINE
  8
3
 62
3
 10
-328.636
 20
-163.637
 30
0.0
 11
-328.351
 21
-163.494
 31
0.0
  0
LINE
  8
3
 62
3
 10
-328.351
 20
-163.494
 30
0.0
 11
-328.065
 21
-163.208
 31
0.0
  0
LINE
  8
3
 62
3
 10
-328.065
 20
-163.208
 30
0.0
 11
-327.922
 21
-162.922
 31
0.0
  0
LINE
  8
3
 62
3
 10
-331.065
 20
-164.637
 30
0.0
 11
-331.351
 21
-164.351
 31
0.0
  0
LINE
  8
3
 62
3
 10
-331.351
 20
-164.351
 30
0.0
 11
-331.065
 21
-164.065
 31
0.0
  0
LINE
  8
3
 62
3
 10
-327.779
 20
-167.637
 30
0.0
 11
-327.779
 21
-164.637
 31
0.0
  0
LINE
  8
3
 62
3
 10
-327.779
 20
-164.637
 30
0.0
 11
-328.922
 21
-167.637
 31
0.0
  0
LINE
  8
3
 62
3
 10
-328.922
 20
-167.637
 30
0.0
 11
-330.065
 21
-164.637
 31
0.0
  0
LINE
  8
3
 62
3
 10
-330.065
 20
-164.637
 30
0.0
 11
-330.065
 21
-167.637
 31
0.0
  0
LINE
  8
3
 62
3
 10
-331.065
 20
-168.637
 30
0.0
 11
-331.351
 21
-168.351
 31
0.0
  0
LINE
  8
3
 62
3
 10
-331.351
 20
-168.351
 30
0.0
 11
-331.636
 21
-167.922
 31
0.0
  0
LINE
  8
3
 62
3
 10
-331.636
 20
-167.922
 30
0.0
 11
-331.922
 21
-167.351
 31
0.0
  0
LINE
  8
3
 62
3
 10
-331.922
 20
-167.351
 30
0.0
 11
-332.065
 21
-166.637
 31
0.0
  0
LINE
  8
3
 62
3
 10
-332.065
 20
-166.637
 30
0.0
 11
-332.065
 21
-166.065
 31
0.0
  0
LINE
  8
3
 62
3
 10
-332.065
 20
-166.065
 30
0.0
 11
-331.922
 21
-165.351
 31
0.0
  0
LINE
  8
3
 62
3
 10
-331.922
 20
-165.351
 30
0.0
 11
-331.636
 21
-164.78
 31
0.0
  0
LINE
  8
3
 62
3
 10
-331.636
 20
-164.78
 30
0.0
 11
-331.351
 21
-164.351
 31
0.0
  0
LINE
  8
3
 62
3
 10
-331.351
 20
-164.351
 30
0.0
 11
-331.636
 21
-163.922
 31
0.0
  0
LINE
  8
3
 62
3
 10
-331.636
 20
-163.922
 30
0.0
 11
-331.922
 21
-163.351
 31
0.0
  0
LINE
  8
3
 62
3
 10
-331.922
 20
-163.351
 30
0.0
 11
-332.065
 21
-162.637
 31
0.0
  0
LINE
  8
3
 62
3
 10
-332.065
 20
-162.637
 30
0.0
 11
-332.065
 21
-162.065
 31
0.0
  0
LINE
  8
3
 62
3
 10
-332.065
 20
-162.065
 30
0.0
 11
-331.922
 21
-161.351
 31
0.0
  0
LINE
  8
3
 62
3
 10
-331.922
 20
-161.351
 30
0.0
 11
-331.636
 21
-160.78
 31
0.0
  0
LINE
  8
3
 62
3
 10
-331.636
 20
-160.78
 30
0.0
 11
-331.351
 21
-160.351
 31
0.0
  0
LINE
  8
3
 62
3
 10
-331.351
 20
-160.351
 30
0.0
 11
-331.065
 21
-160.065
 31
0.0
  0
LINE
  8
3
 62
3
 10
-324.922
 20
-165.637
 30
0.0
 11
-324.922
 21
-166.065
 31
0.0
  0
LINE
  8
3
 62
3
 10
-324.922
 20
-166.065
 30
0.0
 11
-325.208
 21
-165.78
 31
0.0
  0
LINE
  8
3
 62
3
 10
-325.208
 20
-165.78
 30
0.0
 11
-325.494
 21
-165.637
 31
0.0
  0
LINE
  8
3
 62
3
 10
-325.494
 20
-165.637
 30
0.0
 11
-325.922
 21
-165.637
 31
0.0
  0
LINE
  8
3
 62
3
 10
-325.922
 20
-165.637
 30
0.0
 11
-326.208
 21
-165.78
 31
0.0
  0
LINE
  8
3
 62
3
 10
-326.208
 20
-165.78
 30
0.0
 11
-326.494
 21
-166.065
 31
0.0
  0
LINE
  8
3
 62
3
 10
-326.494
 20
-166.065
 30
0.0
 11
-326.636
 21
-166.494
 31
0.0
  0
LINE
  8
3
 62
3
 10
-326.636
 20
-166.494
 30
0.0
 11
-326.636
 21
-166.78
 31
0.0
  0
LINE
  8
3
 62
3
 10
-326.636
 20
-166.78
 30
0.0
 11
-326.494
 21
-167.208
 31
0.0
  0
LINE
  8
3
 62
3
 10
-326.494
 20
-167.208
 30
0.0
 11
-326.208
 21
-167.494
 31
0.0
  0
LINE
  8
3
 62
3
 10
-326.208
 20
-167.494
 30
0.0
 11
-325.922
 21
-167.637
 31
0.0
  0
LINE
  8
3
 62
3
 10
-325.922
 20
-167.637
 30
0.0
 11
-325.494
 21
-167.637
 31
0.0
  0
LINE
  8
3
 62
3
 10
-325.494
 20
-167.637
 30
0.0
 11
-325.208
 21
-167.494
 31
0.0
  0
LINE
  8
3
 62
3
 10
-325.208
 20
-167.494
 30
0.0
 11
-324.922
 21
-167.208
 31
0.0
  0
LINE
  8
3
 62
3
 10
-324.922
 20
-167.208
 30
0.0
 11
-324.922
 21
-167.637
 31
0.0
  0
LINE
  8
3
 62
3
 10
-324.922
 20
-167.208
 30
0.0
 11
-324.922
 21
-166.065
 31
0.0
  0
LINE
  8
3
 62
3
 10
-323.922
 20
-164.637
 30
0.0
 11
-323.922
 21
-167.637
 31
0.0
  0
LINE
  8
3
 62
3
 10
-321.779
 20
-190.065
 30
0.0
 11
-321.922
 21
-189.78
 31
0.0
  0
LINE
  8
3
 62
3
 10
-321.922
 20
-189.78
 30
0.0
 11
-322.351
 21
-189.637
 31
0.0
  0
LINE
  8
3
 62
3
 10
-322.351
 20
-189.637
 30
0.0
 11
-322.779
 21
-189.637
 31
0.0
  0
LINE
  8
3
 62
3
 10
-322.779
 20
-189.637
 30
0.0
 11
-323.208
 21
-189.78
 31
0.0
  0
LINE
  8
3
 62
3
 10
-323.208
 20
-189.78
 30
0.0
 11
-323.351
 21
-190.065
 31
0.0
  0
LINE
  8
3
 62
3
 10
-323.351
 20
-190.065
 30
0.0
 11
-323.208
 21
-190.351
 31
0.0
  0
LINE
  8
3
 62
3
 10
-323.208
 20
-190.351
 30
0.0
 11
-322.922
 21
-190.494
 31
0.0
  0
LINE
  8
3
 62
3
 10
-322.922
 20
-190.494
 30
0.0
 11
-322.208
 21
-190.637
 31
0.0
  0
LINE
  8
3
 62
3
 10
-322.208
 20
-190.637
 30
0.0
 11
-321.922
 21
-190.78
 31
0.0
  0
LINE
  8
3
 62
3
 10
-321.922
 20
-190.78
 30
0.0
 11
-321.779
 21
-191.065
 31
0.0
  0
LINE
  8
3
 62
3
 10
-321.779
 20
-191.065
 30
0.0
 11
-321.779
 21
-191.208
 31
0.0
  0
LINE
  8
3
 62
3
 10
-321.779
 20
-191.208
 30
0.0
 11
-321.922
 21
-191.494
 31
0.0
  0
LINE
  8
3
 62
3
 10
-321.922
 20
-191.494
 30
0.0
 11
-322.351
 21
-191.637
 31
0.0
  0
LINE
  8
3
 62
3
 10
-322.351
 20
-191.637
 30
0.0
 11
-322.779
 21
-191.637
 31
0.0
  0
LINE
  8
3
 62
3
 10
-322.779
 20
-191.637
 30
0.0
 11
-323.208
 21
-191.494
 31
0.0
  0
LINE
  8
3
 62
3
 10
-323.208
 20
-191.494
 30
0.0
 11
-323.351
 21
-191.208
 31
0.0
  0
LINE
  8
3
 62
3
 10
-324.351
 20
-191.208
 30
0.0
 11
-324.351
 21
-190.065
 31
0.0
  0
LINE
  8
3
 62
3
 10
-324.351
 20
-189.637
 30
0.0
 11
-324.351
 21
-190.065
 31
0.0
  0
LINE
  8
3
 62
3
 10
-324.351
 20
-190.065
 30
0.0
 11
-324.636
 21
-189.78
 31
0.0
  0
LINE
  8
3
 62
3
 10
-324.636
 20
-189.78
 30
0.0
 11
-324.922
 21
-189.637
 31
0.0
  0
LINE
  8
3
 62
3
 10
-324.922
 20
-189.637
 30
0.0
 11
-325.351
 21
-189.637
 31
0.0
  0
LINE
  8
3
 62
3
 10
-325.351
 20
-189.637
 30
0.0
 11
-325.636
 21
-189.78
 31
0.0
  0
LINE
  8
3
 62
3
 10
-325.636
 20
-189.78
 30
0.0
 11
-325.922
 21
-190.065
 31
0.0
  0
LINE
  8
3
 62
3
 10
-325.922
 20
-190.065
 30
0.0
 11
-326.065
 21
-190.494
 31
0.0
  0
LINE
  8
3
 62
3
 10
-326.065
 20
-190.494
 30
0.0
 11
-326.065
 21
-190.78
 31
0.0
  0
LINE
  8
3
 62
3
 10
-326.065
 20
-190.78
 30
0.0
 11
-325.922
 21
-191.208
 31
0.0
  0
LINE
  8
3
 62
3
 10
-325.922
 20
-191.208
 30
0.0
 11
-325.636
 21
-191.494
 31
0.0
  0
LINE
  8
3
 62
3
 10
-325.636
 20
-191.494
 30
0.0
 11
-325.351
 21
-191.637
 31
0.0
  0
LINE
  8
3
 62
3
 10
-325.351
 20
-191.637
 30
0.0
 11
-324.922
 21
-191.637
 31
0.0
  0
LINE
  8
3
 62
3
 10
-324.922
 20
-191.637
 30
0.0
 11
-324.636
 21
-191.494
 31
0.0
  0
LINE
  8
3
 62
3
 10
-324.636
 20
-191.494
 30
0.0
 11
-324.351
 21
-191.208
 31
0.0
  0
LINE
  8
3
 62
3
 10
-324.351
 20
-191.208
 30
0.0
 11
-324.351
 21
-191.637
 31
0.0
  0
LINE
  8
3
 62
3
 10
-326.922
 20
-191.208
 30
0.0
 11
-327.208
 21
-191.494
 31
0.0
  0
LINE
  8
3
 62
3
 10
-327.208
 20
-191.494
 30
0.0
 11
-327.494
 21
-191.637
 31
0.0
  0
LINE
  8
3
 62
3
 10
-327.494
 20
-191.637
 30
0.0
 11
-327.922
 21
-191.637
 31
0.0
  0
LINE
  8
3
 62
3
 10
-327.922
 20
-191.637
 30
0.0
 11
-328.208
 21
-191.494
 31
0.0
  0
LINE
  8
3
 62
3
 10
-328.208
 20
-191.494
 30
0.0
 11
-328.494
 21
-191.208
 31
0.0
  0
LINE
  8
3
 62
3
 10
-328.494
 20
-191.208
 30
0.0
 11
-328.636
 21
-190.78
 31
0.0
  0
LINE
  8
3
 62
3
 10
-328.636
 20
-190.78
 30
0.0
 11
-328.636
 21
-190.494
 31
0.0
  0
LINE
  8
3
 62
3
 10
-328.636
 20
-190.494
 30
0.0
 11
-328.494
 21
-190.065
 31
0.0
  0
LINE
  8
3
 62
3
 10
-328.494
 20
-190.065
 30
0.0
 11
-328.208
 21
-189.78
 31
0.0
  0
LINE
  8
3
 62
3
 10
-328.208
 20
-189.78
 30
0.0
 11
-327.922
 21
-189.637
 31
0.0
  0
LINE
  8
3
 62
3
 10
-327.922
 20
-189.637
 30
0.0
 11
-327.494
 21
-189.637
 31
0.0
  0
LINE
  8
3
 62
3
 10
-327.494
 20
-189.637
 30
0.0
 11
-327.208
 21
-189.78
 31
0.0
  0
LINE
  8
3
 62
3
 10
-327.208
 20
-189.78
 30
0.0
 11
-327.065
 21
-189.922
 31
0.0
  0
LINE
  8
3
 62
3
 10
-327.065
 20
-189.922
 30
0.0
 11
-326.922
 21
-190.208
 31
0.0
  0
LINE
  8
3
 62
3
 10
-326.922
 20
-190.208
 30
0.0
 11
-326.922
 21
-190.494
 31
0.0
  0
LINE
  8
3
 62
3
 10
-326.922
 20
-190.494
 30
0.0
 11
-328.636
 21
-190.494
 31
0.0
  0
LINE
  8
3
 62
3
 10
-329.779
 20
-191.637
 30
0.0
 11
-329.779
 21
-188.637
 31
0.0
  0
LINE
  8
3
 62
3
 10
-329.779
 20
-188.637
 30
0.0
 11
-330.922
 21
-191.637
 31
0.0
  0
LINE
  8
3
 62
3
 10
-330.922
 20
-191.637
 30
0.0
 11
-332.065
 21
-188.637
 31
0.0
  0
LINE
  8
3
 62
3
 10
-332.065
 20
-188.637
 30
0.0
 11
-332.065
 21
-191.637
 31
0.0
  0
LINE
  8
3
 62
3
 10
-326.065
 20
-195.637
 30
0.0
 11
-312.065
 21
-195.637
 31
0.0
  0
LINE
  8
3
 62
3
 10
-312.065
 20
-195.637
 30
0.0
 11
-312.065
 21
-215.637
 31
0.0
  0
LINE
  8
3
 62
3
 10
-312.065
 20
-215.637
 30
0.0
 11
-332.065
 21
-215.637
 31
0.0
  0
LINE
  8
3
 62
3
 10
-332.065
 20
-215.637
 30
0.0
 11
-332.065
 21
-195.637
 31
0.0
  0
LINE
  8
3
 62
3
 10
-332.065
 20
-195.637
 30
0.0
 11
-326.065
 21
-195.637
 31
0.0
  0
LINE
  8
3
 62
3
 10
-320.922
 20
-189.637
 30
0.0
 11
-320.922
 21
-191.065
 31
0.0
  0
LINE
  8
3
 62
3
 10
-320.922
 20
-191.065
 30
0.0
 11
-320.779
 21
-191.494
 31
0.0
  0
LINE
  8
3
 62
3
 10
-320.779
 20
-191.494
 30
0.0
 11
-320.494
 21
-191.637
 31
0.0
  0
LINE
  8
3
 62
3
 10
-320.494
 20
-191.637
 30
0.0
 11
-320.065
 21
-191.637
 31
0.0
  0
LINE
  8
3
 62
3
 10
-320.065
 20
-191.637
 30
0.0
 11
-319.779
 21
-191.494
 31
0.0
  0
LINE
  8
3
 62
3
 10
-319.779
 20
-191.494
 30
0.0
 11
-319.351
 21
-191.065
 31
0.0
  0
LINE
  8
3
 62
3
 10
-319.351
 20
-191.065
 30
0.0
 11
-319.351
 21
-191.637
 31
0.0
  0
LINE
  8
3
 62
3
 10
-319.351
 20
-191.065
 30
0.0
 11
-319.351
 21
-189.637
 31
0.0
  0
LINE
  8
3
 62
3
 10
-318.208
 20
-191.637
 30
0.0
 11
-318.208
 21
-190.494
 31
0.0
  0
LINE
  8
3
 62
3
 10
-318.208
 20
-189.637
 30
0.0
 11
-318.208
 21
-190.494
 31
0.0
  0
LINE
  8
3
 62
3
 10
-318.208
 20
-190.494
 30
0.0
 11
-318.065
 21
-190.065
 31
0.0
  0
LINE
  8
3
 62
3
 10
-318.065
 20
-190.065
 30
0.0
 11
-317.779
 21
-189.78
 31
0.0
  0
LINE
  8
3
 62
3
 10
-317.779
 20
-189.78
 30
0.0
 11
-317.494
 21
-189.637
 31
0.0
  0
LINE
  8
3
 62
3
 10
-317.494
 20
-189.637
 30
0.0
 11
-317.065
 21
-189.637
 31
0.0
  0
LINE
  8
3
 62
3
 10
-316.351
 20
-190.494
 30
0.0
 11
-314.636
 21
-190.494
 31
0.0
  0
LINE
  8
3
 62
3
 10
-314.636
 20
-190.494
 30
0.0
 11
-314.636
 21
-190.208
 31
0.0
  0
LINE
  8
3
 62
3
 10
-314.636
 20
-190.208
 30
0.0
 11
-314.779
 21
-189.922
 31
0.0
  0
LINE
  8
3
 62
3
 10
-314.779
 20
-189.922
 30
0.0
 11
-314.922
 21
-189.78
 31
0.0
  0
LINE
  8
3
 62
3
 10
-314.922
 20
-189.78
 30
0.0
 11
-315.208
 21
-189.637
 31
0.0
  0
LINE
  8
3
 62
3
 10
-315.208
 20
-189.637
 30
0.0
 11
-315.636
 21
-189.637
 31
0.0
  0
LINE
  8
3
 62
3
 10
-315.636
 20
-189.637
 30
0.0
 11
-315.922
 21
-189.78
 31
0.0
  0
LINE
  8
3
 62
3
 10
-315.922
 20
-189.78
 30
0.0
 11
-316.208
 21
-190.065
 31
0.0
  0
LINE
  8
3
 62
3
 10
-316.208
 20
-190.065
 30
0.0
 11
-316.351
 21
-190.494
 31
0.0
  0
LINE
  8
3
 62
3
 10
-316.351
 20
-190.494
 30
0.0
 11
-316.351
 21
-190.78
 31
0.0
  0
LINE
  8
3
 62
3
 10
-316.351
 20
-190.78
 30
0.0
 11
-316.208
 21
-191.208
 31
0.0
  0
LINE
  8
3
 62
3
 10
-316.208
 20
-191.208
 30
0.0
 11
-315.922
 21
-191.494
 31
0.0
  0
LINE
  8
3
 62
3
 10
-315.922
 20
-191.494
 30
0.0
 11
-315.636
 21
-191.637
 31
0.0
  0
LINE
  8
3
 62
3
 10
-315.636
 20
-191.637
 30
0.0
 11
-315.208
 21
-191.637
 31
0.0
  0
LINE
  8
3
 62
3
 10
-315.208
 20
-191.637
 30
0.0
 11
-314.922
 21
-191.494
 31
0.0
  0
LINE
  8
3
 62
3
 10
-314.922
 20
-191.494
 30
0.0
 11
-314.636
 21
-191.208
 31
0.0
  0
LINE
  8
3
 62
3
 10
-309.922
 20
-191.637
 30
0.0
 11
-310.208
 21
-191.637
 31
0.0
  0
LINE
  8
3
 62
3
 10
-310.208
 20
-191.637
 30
0.0
 11
-310.494
 21
-191.494
 31
0.0
  0
LINE
  8
3
 62
3
 10
-310.494
 20
-191.494
 30
0.0
 11
-310.636
 21
-191.065
 31
0.0
  0
LINE
  8
3
 62
3
 10
-310.636
 20
-191.065
 30
0.0
 11
-310.636
 21
-189.637
 31
0.0
  0
LINE
  8
3
 62
3
 10
-310.636
 20
-189.637
 30
0.0
 11
-311.065
 21
-189.637
 31
0.0
  0
LINE
  8
3
 62
3
 10
-310.636
 20
-188.637
 30
0.0
 11
-310.636
 21
-189.637
 31
0.0
  0
LINE
  8
3
 62
3
 10
-310.636
 20
-189.637
 30
0.0
 11
-310.065
 21
-189.637
 31
0.0
  0
LINE
  8
3
 62
3
 10
-309.065
 20
-190.494
 30
0.0
 11
-307.351
 21
-190.494
 31
0.0
  0
LINE
  8
3
 62
3
 10
-307.351
 20
-190.494
 30
0.0
 11
-307.351
 21
-190.208
 31
0.0
  0
LINE
  8
3
 62
3
 10
-307.351
 20
-190.208
 30
0.0
 11
-307.494
 21
-189.922
 31
0.0
  0
LINE
  8
3
 62
3
 10
-307.494
 20
-189.922
 30
0.0
 11
-307.636
 21
-189.78
 31
0.0
  0
LINE
  8
3
 62
3
 10
-307.636
 20
-189.78
 30
0.0
 11
-307.922
 21
-189.637
 31
0.0
  0
LINE
  8
3
 62
3
 10
-307.922
 20
-189.637
 30
0.0
 11
-308.351
 21
-189.637
 31
0.0
  0
LINE
  8
3
 62
3
 10
-308.351
 20
-189.637
 30
0.0
 11
-308.636
 21
-189.78
 31
0.0
  0
LINE
  8
3
 62
3
 10
-308.636
 20
-189.78
 30
0.0
 11
-308.922
 21
-190.065
 31
0.0
  0
LINE
  8
3
 62
3
 10
-308.922
 20
-190.065
 30
0.0
 11
-309.065
 21
-190.494
 31
0.0
  0
LINE
  8
3
 62
3
 10
-309.065
 20
-190.494
 30
0.0
 11
-309.065
 21
-190.78
 31
0.0
  0
LINE
  8
3
 62
3
 10
-309.065
 20
-190.78
 30
0.0
 11
-308.922
 21
-191.208
 31
0.0
  0
LINE
  8
3
 62
3
 10
-308.922
 20
-191.208
 30
0.0
 11
-308.636
 21
-191.494
 31
0.0
  0
LINE
  8
3
 62
3
 10
-308.636
 20
-191.494
 30
0.0
 11
-308.351
 21
-191.637
 31
0.0
  0
LINE
  8
3
 62
3
 10
-308.351
 20
-191.637
 30
0.0
 11
-307.922
 21
-191.637
 31
0.0
  0
LINE
  8
3
 62
3
 10
-307.922
 20
-191.637
 30
0.0
 11
-307.636
 21
-191.494
 31
0.0
  0
LINE
  8
3
 62
3
 10
-307.636
 20
-191.494
 30
0.0
 11
-307.351
 21
-191.208
 31
0.0
  0
LINE
  8
3
 62
3
 10
-306.494
 20
-191.208
 30
0.0
 11
-306.351
 21
-191.494
 31
0.0
  0
LINE
  8
3
 62
3
 10
-306.351
 20
-191.494
 30
0.0
 11
-305.922
 21
-191.637
 31
0.0
  0
LINE
  8
3
 62
3
 10
-305.922
 20
-191.637
 30
0.0
 11
-305.494
 21
-191.637
 31
0.0
  0
LINE
  8
3
 62
3
 10
-305.494
 20
-191.637
 30
0.0
 11
-305.065
 21
-191.494
 31
0.0
  0
LINE
  8
3
 62
3
 10
-305.065
 20
-191.494
 30
0.0
 11
-304.922
 21
-191.208
 31
0.0
  0
LINE
  8
3
 62
3
 10
-304.922
 20
-191.208
 30
0.0
 11
-304.922
 21
-191.065
 31
0.0
  0
LINE
  8
3
 62
3
 10
-304.922
 20
-191.065
 30
0.0
 11
-305.065
 21
-190.78
 31
0.0
  0
LINE
  8
3
 62
3
 10
-305.065
 20
-190.78
 30
0.0
 11
-305.351
 21
-190.637
 31
0.0
  0
LINE
  8
3
 62
3
 10
-305.351
 20
-190.637
 30
0.0
 11
-306.065
 21
-190.494
 31
0.0
  0
LINE
  8
3
 62
3
 10
-306.065
 20
-190.494
 30
0.0
 11
-306.351
 21
-190.351
 31
0.0
  0
LINE
  8
3
 62
3
 10
-306.351
 20
-190.351
 30
0.0
 11
-306.494
 21
-190.065
 31
0.0
  0
LINE
  8
3
 62
3
 10
-306.494
 20
-190.065
 30
0.0
 11
-306.351
 21
-189.78
 31
0.0
  0
LINE
  8
3
 62
3
 10
-306.351
 20
-189.78
 30
0.0
 11
-305.922
 21
-189.637
 31
0.0
  0
LINE
  8
3
 62
3
 10
-305.922
 20
-189.637
 30
0.0
 11
-305.494
 21
-189.637
 31
0.0
  0
LINE
  8
3
 62
3
 10
-305.494
 20
-189.637
 30
0.0
 11
-305.065
 21
-189.78
 31
0.0
  0
LINE
  8
3
 62
3
 10
-305.065
 20
-189.78
 30
0.0
 11
-304.922
 21
-190.065
 31
0.0
  0
LINE
  8
3
 62
3
 10
-302.922
 20
-191.637
 30
0.0
 11
-303.208
 21
-191.637
 31
0.0
  0
LINE
  8
3
 62
3
 10
-303.208
 20
-191.637
 30
0.0
 11
-303.494
 21
-191.494
 31
0.0
  0
LINE
  8
3
 62
3
 10
-303.494
 20
-191.494
 30
0.0
 11
-303.636
 21
-191.065
 31
0.0
  0
LINE
  8
3
 62
3
 10
-303.636
 20
-191.065
 30
0.0
 11
-303.636
 21
-189.637
 31
0.0
  0
LINE
  8
3
 62
3
 10
-303.636
 20
-189.637
 30
0.0
 11
-304.065
 21
-189.637
 31
0.0
  0
LINE
  8
3
 62
3
 10
-303.636
 20
-188.637
 30
0.0
 11
-303.636
 21
-189.637
 31
0.0
  0
LINE
  8
3
 62
3
 10
-303.636
 20
-189.637
 30
0.0
 11
-303.065
 21
-189.637
 31
0.0
  0
LINE
  8
3
 62
3
 10
-279.208
 20
-189.637
 30
0.0
 11
-279.208
 21
-190.208
 31
0.0
  0
LINE
  8
3
 62
3
 10
-279.208
 20
-190.208
 30
0.0
 11
-278.779
 21
-189.78
 31
0.0
  0
LINE
  8
3
 62
3
 10
-278.779
 20
-189.78
 30
0.0
 11
-278.494
 21
-189.637
 31
0.0
  0
LINE
  8
3
 62
3
 10
-278.494
 20
-189.637
 30
0.0
 11
-278.065
 21
-189.637
 31
0.0
  0
LINE
  8
3
 62
3
 10
-278.065
 20
-189.637
 30
0.0
 11
-277.779
 21
-189.78
 31
0.0
  0
LINE
  8
3
 62
3
 10
-277.779
 20
-189.78
 30
0.0
 11
-277.636
 21
-190.208
 31
0.0
  0
LINE
  8
3
 62
3
 10
-277.636
 20
-190.208
 30
0.0
 11
-277.208
 21
-189.78
 31
0.0
  0
LINE
  8
3
 62
3
 10
-277.208
 20
-189.78
 30
0.0
 11
-276.922
 21
-189.637
 31
0.0
  0
LINE
  8
3
 62
3
 10
-276.922
 20
-189.637
 30
0.0
 11
-276.494
 21
-189.637
 31
0.0
  0
LINE
  8
3
 62
3
 10
-276.494
 20
-189.637
 30
0.0
 11
-276.208
 21
-189.78
 31
0.0
  0
LINE
  8
3
 62
3
 10
-276.208
 20
-189.78
 30
0.0
 11
-276.065
 21
-190.208
 31
0.0
  0
LINE
  8
3
 62
3
 10
-276.065
 20
-190.208
 30
0.0
 11
-276.065
 21
-191.637
 31
0.0
  0
LINE
  8
3
 62
3
 10
-277.636
 20
-191.637
 30
0.0
 11
-277.636
 21
-190.208
 31
0.0
  0
LINE
  8
3
 62
3
 10
-279.208
 20
-190.208
 30
0.0
 11
-279.208
 21
-191.637
 31
0.0
  0
LINE
  8
3
 62
3
 10
-274.922
 20
-192.637
 30
0.0
 11
-274.636
 21
-192.351
 31
0.0
  0
LINE
  8
3
 62
3
 10
-274.636
 20
-192.351
 30
0.0
 11
-274.351
 21
-191.922
 31
0.0
  0
LINE
  8
3
 62
3
 10
-274.351
 20
-191.922
 30
0.0
 11
-274.065
 21
-191.351
 31
0.0
  0
LINE
  8
3
 62
3
 10
-274.065
 20
-191.351
 30
0.0
 11
-273.922
 21
-190.637
 31
0.0
  0
LINE
  8
3
 62
3
 10
-273.922
 20
-190.637
 30
0.0
 11
-273.922
 21
-190.065
 31
0.0
  0
LINE
  8
3
 62
3
 10
-273.922
 20
-190.065
 30
0.0
 11
-274.065
 21
-189.351
 31
0.0
  0
LINE
  8
3
 62
3
 10
-274.065
 20
-189.351
 30
0.0
 11
-274.351
 21
-188.78
 31
0.0
  0
LINE
  8
3
 62
3
 10
-274.351
 20
-188.78
 30
0.0
 11
-274.636
 21
-188.351
 31
0.0
  0
LINE
  8
3
 62
3
 10
-274.636
 20
-188.351
 30
0.0
 11
-274.922
 21
-188.065
 31
0.0
  0
LINE
  8
3
 62
3
 10
112.56
 20
-146.78
 30
0.0
 11
112.798
 21
-147.018
 31
0.0
  0
LINE
  8
3
 62
3
 10
112.798
 20
-147.018
 30
0.0
 11
113.155
 21
-147.137
 31
0.0
  0
LINE
  8
3
 62
3
 10
113.155
 20
-147.137
 30
0.0
 11
113.631
 21
-147.137
 31
0.0
  0
LINE
  8
3
 62
3
 10
113.631
 20
-147.137
 30
0.0
 11
113.988
 21
-147.018
 31
0.0
  0
LINE
  8
3
 62
3
 10
113.988
 20
-147.018
 30
0.0
 11
114.226
 21
-146.78
 31
0.0
  0
LINE
  8
3
 62
3
 10
114.226
 20
-146.78
 30
0.0
 11
114.226
 21
-146.422
 31
0.0
  0
LINE
  8
3
 62
3
 10
114.226
 20
-146.422
 30
0.0
 11
114.107
 21
-146.184
 31
0.0
  0
LINE
  8
3
 62
3
 10
114.107
 20
-146.184
 30
0.0
 11
113.988
 21
-146.065
 31
0.0
  0
LINE
  8
3
 62
3
 10
113.988
 20
-146.065
 30
0.0
 11
113.75
 21
-145.946
 31
0.0
  0
LINE
  8
3
 62
3
 10
113.75
 20
-145.946
 30
0.0
 11
113.036
 21
-145.708
 31
0.0
  0
LINE
  8
3
 62
3
 10
113.036
 20
-145.708
 30
0.0
 11
112.798
 21
-145.589
 31
0.0
  0
LINE
  8
3
 62
3
 10
112.798
 20
-145.589
 30
0.0
 11
112.679
 21
-145.47
 31
0.0
  0
LINE
  8
3
 62
3
 10
112.679
 20
-145.47
 30
0.0
 11
112.56
 21
-145.232
 31
0.0
  0
LINE
  8
3
 62
3
 10
112.56
 20
-145.232
 30
0.0
 11
112.56
 21
-144.994
 31
0.0
  0
LINE
  8
3
 62
3
 10
112.56
 20
-144.994
 30
0.0
 11
112.798
 21
-144.756
 31
0.0
  0
LINE
  8
3
 62
3
 10
112.798
 20
-144.756
 30
0.0
 11
113.155
 21
-144.637
 31
0.0
  0
LINE
  8
3
 62
3
 10
113.155
 20
-144.637
 30
0.0
 11
113.631
 21
-144.637
 31
0.0
  0
LINE
  8
3
 62
3
 10
113.631
 20
-144.637
 30
0.0
 11
113.988
 21
-144.756
 31
0.0
  0
LINE
  8
3
 62
3
 10
113.988
 20
-144.756
 30
0.0
 11
114.226
 21
-144.994
 31
0.0
  0
LINE
  8
3
 62
3
 10
114.94
 20
-146.065
 30
0.0
 11
117.083
 21
-146.065
 31
0.0
  0
LINE
  8
3
 62
3
 10
118.036
 20
-145.827
 30
0.0
 11
118.036
 21
-144.637
 31
0.0
  0
LINE
  8
3
 62
3
 10
118.036
 20
-144.637
 30
0.0
 11
119.107
 21
-144.637
 31
0.0
  0
LINE
  8
3
 62
3
 10
119.107
 20
-144.637
 30
0.0
 11
119.464
 21
-144.756
 31
0.0
  0
LINE
  8
3
 62
3
 10
119.464
 20
-144.756
 30
0.0
 11
119.583
 21
-144.875
 31
0.0
  0
LINE
  8
3
 62
3
 10
119.583
 20
-144.875
 30
0.0
 11
119.702
 21
-145.113
 31
0.0
  0
LINE
  8
3
 62
3
 10
119.702
 20
-145.113
 30
0.0
 11
119.702
 21
-145.351
 31
0.0
  0
LINE
  8
3
 62
3
 10
119.702
 20
-145.351
 30
0.0
 11
119.583
 21
-145.589
 31
0.0
  0
LINE
  8
3
 62
3
 10
119.583
 20
-145.589
 30
0.0
 11
119.464
 21
-145.708
 31
0.0
  0
LINE
  8
3
 62
3
 10
119.464
 20
-145.708
 30
0.0
 11
119.107
 21
-145.827
 31
0.0
  0
LINE
  8
3
 62
3
 10
119.107
 20
-145.827
 30
0.0
 11
119.464
 21
-145.946
 31
0.0
  0
LINE
  8
3
 62
3
 10
119.464
 20
-145.946
 30
0.0
 11
119.583
 21
-146.065
 31
0.0
  0
LINE
  8
3
 62
3
 10
119.583
 20
-146.065
 30
0.0
 11
119.702
 21
-146.303
 31
0.0
  0
LINE
  8
3
 62
3
 10
119.702
 20
-146.303
 30
0.0
 11
119.702
 21
-146.661
 31
0.0
  0
LINE
  8
3
 62
3
 10
119.702
 20
-146.661
 30
0.0
 11
119.583
 21
-146.899
 31
0.0
  0
LINE
  8
3
 62
3
 10
119.583
 20
-146.899
 30
0.0
 11
119.464
 21
-147.018
 31
0.0
  0
LINE
  8
3
 62
3
 10
119.464
 20
-147.018
 30
0.0
 11
119.107
 21
-147.137
 31
0.0
  0
LINE
  8
3
 62
3
 10
119.107
 20
-147.137
 30
0.0
 11
118.036
 21
-147.137
 31
0.0
  0
LINE
  8
3
 62
3
 10
118.036
 20
-147.137
 30
0.0
 11
118.036
 21
-145.827
 31
0.0
  0
LINE
  8
3
 62
3
 10
118.036
 20
-145.827
 30
0.0
 11
119.107
 21
-145.827
 31
0.0
  0
LINE
  8
3
 62
3
 10
122.202
 20
-144.994
 30
0.0
 11
122.25
 21
-145.09
 31
0.0
  0
LINE
  8
3
 62
3
 10
122.25
 20
-145.09
 30
0.0
 11
122.321
 21
-145.232
 31
0.0
  0
LINE
  8
3
 62
3
 10
122.321
 20
-145.232
 30
0.0
 11
122.44
 21
-145.589
 31
0.0
  0
LINE
  8
3
 62
3
 10
122.44
 20
-145.589
 30
0.0
 11
122.44
 21
-146.184
 31
0.0
  0
LINE
  8
3
 62
3
 10
122.44
 20
-146.184
 30
0.0
 11
122.321
 21
-146.542
 31
0.0
  0
LINE
  8
3
 62
3
 10
122.321
 20
-146.542
 30
0.0
 11
122.202
 21
-146.78
 31
0.0
  0
LINE
  8
3
 62
3
 10
122.202
 20
-146.78
 30
0.0
 11
121.964
 21
-147.018
 31
0.0
  0
LINE
  8
3
 62
3
 10
121.964
 20
-147.018
 30
0.0
 11
121.726
 21
-147.137
 31
0.0
  0
LINE
  8
3
 62
3
 10
121.726
 20
-147.137
 30
0.0
 11
121.25
 21
-147.137
 31
0.0
  0
LINE
  8
3
 62
3
 10
121.25
 20
-147.137
 30
0.0
 11
121.012
 21
-147.018
 31
0.0
  0
LINE
  8
3
 62
3
 10
121.012
 20
-147.018
 30
0.0
 11
120.774
 21
-146.78
 31
0.0
  0
LINE
  8
3
 62
3
 10
120.774
 20
-146.78
 30
0.0
 11
120.655
 21
-146.542
 31
0.0
  0
LINE
  8
3
 62
3
 10
120.655
 20
-146.542
 30
0.0
 11
120.536
 21
-146.184
 31
0.0
  0
LINE
  8
3
 62
3
 10
120.536
 20
-146.184
 30
0.0
 11
120.536
 21
-145.589
 31
0.0
  0
LINE
  8
3
 62
3
 10
120.536
 20
-145.589
 30
0.0
 11
120.655
 21
-145.232
 31
0.0
  0
LINE
  8
3
 62
3
 10
120.655
 20
-145.232
 30
0.0
 11
120.774
 21
-144.994
 31
0.0
  0
LINE
  8
3
 62
3
 10
120.774
 20
-144.994
 30
0.0
 11
121.012
 21
-144.756
 31
0.0
  0
LINE
  8
3
 62
3
 10
121.012
 20
-144.756
 30
0.0
 11
121.25
 21
-144.637
 31
0.0
  0
LINE
  8
3
 62
3
 10
121.25
 20
-144.637
 30
0.0
 11
121.726
 21
-144.637
 31
0.0
  0
LINE
  8
3
 62
3
 10
121.726
 20
-144.637
 30
0.0
 11
121.964
 21
-144.756
 31
0.0
  0
LINE
  8
3
 62
3
 10
121.964
 20
-144.756
 30
0.0
 11
122.202
 21
-144.994
 31
0.0
  0
LINE
  8
3
 62
3
 10
123.155
 20
-144.637
 30
0.0
 11
123.988
 21
-145.887
 31
0.0
  0
LINE
  8
3
 62
3
 10
124.821
 20
-144.637
 30
0.0
 11
123.988
 21
-145.887
 31
0.0
  0
LINE
  8
3
 62
3
 10
123.155
 20
-147.137
 30
0.0
 11
123.988
 21
-145.887
 31
0.0
  0
LINE
  8
3
 62
3
 10
123.988
 20
-145.887
 30
0.0
 11
124.821
 21
-147.137
 31
0.0
  0
LINE
  8
3
 62
3
 10
125.536
 20
-146.065
 30
0.0
 11
127.679
 21
-146.065
 31
0.0
  0
LINE
  8
3
 62
3
 10
129.821
 20
-146.303
 30
0.0
 11
128.631
 21
-146.303
 31
0.0
  0
LINE
  8
3
 62
3
 10
128.631
 20
-146.303
 30
0.0
 11
129.821
 21
-144.637
 31
0.0
  0
LINE
  8
3
 62
3
 10
129.821
 20
-144.637
 30
0.0
 11
129.821
 21
-146.303
 31
0.0
  0
LINE
  8
3
 62
3
 10
129.821
 20
-147.137
 30
0.0
 11
129.821
 21
-146.303
 31
0.0
  0
LINE
  8
3
 62
3
 10
129.821
 20
-146.303
 30
0.0
 11
130.417
 21
-146.303
 31
0.0
  0
LINE
  8
3
 62
3
 10
131.012
 20
-146.661
 30
0.0
 11
131.131
 21
-146.899
 31
0.0
  0
LINE
  8
3
 62
3
 10
131.131
 20
-146.899
 30
0.0
 11
131.25
 21
-147.018
 31
0.0
  0
LINE
  8
3
 62
3
 10
131.25
 20
-147.018
 30
0.0
 11
131.607
 21
-147.137
 31
0.0
  0
LINE
  8
3
 62
3
 10
131.607
 20
-147.137
 30
0.0
 11
131.964
 21
-147.137
 31
0.0
  0
LINE
  8
3
 62
3
 10
131.964
 20
-147.137
 30
0.0
 11
132.321
 21
-147.018
 31
0.0
  0
LINE
  8
3
 62
3
 10
132.321
 20
-147.018
 30
0.0
 11
132.56
 21
-146.78
 31
0.0
  0
LINE
  8
3
 62
3
 10
132.56
 20
-146.78
 30
0.0
 11
132.679
 21
-146.422
 31
0.0
  0
LINE
  8
3
 62
3
 10
132.679
 20
-146.422
 30
0.0
 11
132.679
 21
-146.184
 31
0.0
  0
LINE
  8
3
 62
3
 10
132.679
 20
-146.184
 30
0.0
 11
132.56
 21
-145.827
 31
0.0
  0
LINE
  8
3
 62
3
 10
132.56
 20
-145.827
 30
0.0
 11
132.44
 21
-145.708
 31
0.0
  0
LINE
  8
3
 62
3
 10
132.44
 20
-145.708
 30
0.0
 11
132.202
 21
-145.589
 31
0.0
  0
LINE
  8
3
 62
3
 10
132.202
 20
-145.589
 30
0.0
 11
131.845
 21
-145.589
 31
0.0
  0
LINE
  8
3
 62
3
 10
131.845
 20
-145.589
 30
0.0
 11
132.56
 21
-144.637
 31
0.0
  0
LINE
  8
3
 62
3
 10
132.56
 20
-144.637
 30
0.0
 11
131.25
 21
-144.637
 31
0.0
  0
LINE
  8
3
 62
3
 10
133.512
 20
-145.232
 30
0.0
 11
133.512
 21
-145.113
 31
0.0
  0
LINE
  8
3
 62
3
 10
133.512
 20
-145.113
 30
0.0
 11
133.631
 21
-144.875
 31
0.0
  0
LINE
  8
3
 62
3
 10
133.631
 20
-144.875
 30
0.0
 11
133.75
 21
-144.756
 31
0.0
  0
LINE
  8
3
 62
3
 10
133.75
 20
-144.756
 30
0.0
 11
133.988
 21
-144.637
 31
0.0
  0
LINE
  8
3
 62
3
 10
133.988
 20
-144.637
 30
0.0
 11
134.464
 21
-144.637
 31
0.0
  0
LINE
  8
3
 62
3
 10
134.464
 20
-144.637
 30
0.0
 11
134.702
 21
-144.756
 31
0.0
  0
LINE
  8
3
 62
3
 10
134.702
 20
-144.756
 30
0.0
 11
134.821
 21
-144.875
 31
0.0
  0
LINE
  8
3
 62
3
 10
134.821
 20
-144.875
 30
0.0
 11
134.94
 21
-145.113
 31
0.0
  0
LINE
  8
3
 62
3
 10
134.94
 20
-145.113
 30
0.0
 11
134.94
 21
-145.351
 31
0.0
  0
LINE
  8
3
 62
3
 10
134.94
 20
-145.351
 30
0.0
 11
134.821
 21
-145.589
 31
0.0
  0
LINE
  8
3
 62
3
 10
134.821
 20
-145.589
 30
0.0
 11
134.583
 21
-145.946
 31
0.0
  0
LINE
  8
3
 62
3
 10
134.583
 20
-145.946
 30
0.0
 11
133.393
 21
-147.137
 31
0.0
  0
LINE
  8
3
 62
3
 10
133.393
 20
-147.137
 30
0.0
 11
135.06
 21
-147.137
 31
0.0
  0
LINE
  8
3
 62
3
 10
135.774
 20
-146.065
 30
0.0
 11
137.917
 21
-146.065
 31
0.0
  0
LINE
  8
3
 62
3
 10
140.655
 20
-146.542
 30
0.0
 11
140.536
 21
-146.78
 31
0.0
  0
LINE
  8
3
 62
3
 10
140.536
 20
-146.78
 30
0.0
 11
140.298
 21
-147.018
 31
0.0
  0
LINE
  8
3
 62
3
 10
140.298
 20
-147.018
 30
0.0
 11
140.06
 21
-147.137
 31
0.0
  0
LINE
  8
3
 62
3
 10
140.06
 20
-147.137
 30
0.0
 11
139.583
 21
-147.137
 31
0.0
  0
LINE
  8
3
 62
3
 10
139.583
 20
-147.137
 30
0.0
 11
139.345
 21
-147.018
 31
0.0
  0
LINE
  8
3
 62
3
 10
139.345
 20
-147.018
 30
0.0
 11
139.107
 21
-146.78
 31
0.0
  0
LINE
  8
3
 62
3
 10
139.107
 20
-146.78
 30
0.0
 11
138.988
 21
-146.542
 31
0.0
  0
LINE
  8
3
 62
3
 10
138.988
 20
-146.542
 30
0.0
 11
138.869
 21
-146.184
 31
0.0
  0
LINE
  8
3
 62
3
 10
138.869
 20
-146.184
 30
0.0
 11
138.869
 21
-145.589
 31
0.0
  0
LINE
  8
3
 62
3
 10
138.869
 20
-145.589
 30
0.0
 11
138.988
 21
-145.232
 31
0.0
  0
LINE
  8
3
 62
3
 10
138.988
 20
-145.232
 30
0.0
 11
139.107
 21
-144.994
 31
0.0
  0
LINE
  8
3
 62
3
 10
139.107
 20
-144.994
 30
0.0
 11
139.345
 21
-144.756
 31
0.0
  0
LINE
  8
3
 62
3
 10
139.345
 20
-144.756
 30
0.0
 11
139.583
 21
-144.637
 31
0.0
  0
LINE
  8
3
 62
3
 10
139.583
 20
-144.637
 30
0.0
 11
140.06
 21
-144.637
 31
0.0
  0
LINE
  8
3
 62
3
 10
140.06
 20
-144.637
 30
0.0
 11
140.298
 21
-144.756
 31
0.0
  0
LINE
  8
3
 62
3
 10
140.298
 20
-144.756
 30
0.0
 11
140.536
 21
-144.994
 31
0.0
  0
LINE
  8
3
 62
3
 10
140.536
 20
-144.994
 30
0.0
 11
140.655
 21
-145.232
 31
0.0
  0
LINE
  8
3
 62
3
 10
141.369
 20
-145.827
 30
0.0
 11
141.369
 21
-144.637
 31
0.0
  0
LINE
  8
3
 62
3
 10
141.369
 20
-144.637
 30
0.0
 11
142.44
 21
-144.637
 31
0.0
  0
LINE
  8
3
 62
3
 10
142.44
 20
-144.637
 30
0.0
 11
142.798
 21
-144.756
 31
0.0
  0
LINE
  8
3
 62
3
 10
142.798
 20
-144.756
 30
0.0
 11
142.917
 21
-144.875
 31
0.0
  0
LINE
  8
3
 62
3
 10
142.917
 20
-144.875
 30
0.0
 11
143.036
 21
-145.113
 31
0.0
  0
LINE
  8
3
 62
3
 10
143.036
 20
-145.113
 30
0.0
 11
143.036
 21
-145.351
 31
0.0
  0
LINE
  8
3
 62
3
 10
143.036
 20
-145.351
 30
0.0
 11
142.917
 21
-145.589
 31
0.0
  0
LINE
  8
3
 62
3
 10
142.917
 20
-145.589
 30
0.0
 11
142.798
 21
-145.708
 31
0.0
  0
LINE
  8
3
 62
3
 10
142.798
 20
-145.708
 30
0.0
 11
142.44
 21
-145.827
 31
0.0
  0
LINE
  8
3
 62
3
 10
142.44
 20
-145.827
 30
0.0
 11
142.798
 21
-145.946
 31
0.0
  0
LINE
  8
3
 62
3
 10
142.798
 20
-145.946
 30
0.0
 11
142.917
 21
-146.065
 31
0.0
  0
LINE
  8
3
 62
3
 10
142.917
 20
-146.065
 30
0.0
 11
143.036
 21
-146.303
 31
0.0
  0
LINE
  8
3
 62
3
 10
143.036
 20
-146.303
 30
0.0
 11
143.036
 21
-146.661
 31
0.0
  0
LINE
  8
3
 62
3
 10
143.036
 20
-146.661
 30
0.0
 11
142.917
 21
-146.899
 31
0.0
  0
LINE
  8
3
 62
3
 10
142.917
 20
-146.899
 30
0.0
 11
142.798
 21
-147.018
 31
0.0
  0
LINE
  8
3
 62
3
 10
142.798
 20
-147.018
 30
0.0
 11
142.44
 21
-147.137
 31
0.0
  0
LINE
  8
3
 62
3
 10
142.44
 20
-147.137
 30
0.0
 11
141.369
 21
-147.137
 31
0.0
  0
LINE
  8
3
 62
3
 10
141.369
 20
-147.137
 30
0.0
 11
141.369
 21
-145.827
 31
0.0
  0
LINE
  8
3
 62
3
 10
141.369
 20
-145.827
 30
0.0
 11
142.44
 21
-145.827
 31
0.0
  0
LINE
  8
3
 62
3
 10
143.869
 20
-146.065
 30
0.0
 11
146.012
 21
-146.065
 31
0.0
  0
LINE
  8
3
 62
3
 10
147.798
 20
-147.137
 30
0.0
 11
147.798
 21
-144.637
 31
0.0
  0
LINE
  8
3
 62
3
 10
147.798
 20
-144.637
 30
0.0
 11
146.964
 21
-144.637
 31
0.0
  0
LINE
  8
3
 62
3
 10
147.798
 20
-144.637
 30
0.0
 11
148.631
 21
-144.637
 31
0.0
  0
LINE
  8
3
 62
3
 10
149.107
 20
-145.946
 30
0.0
 11
150.179
 21
-145.946
 31
0.0
  0
LINE
  8
3
 62
3
 10
150.179
 20
-145.946
 30
0.0
 11
150.536
 21
-145.827
 31
0.0
  0
LINE
  8
3
 62
3
 10
150.536
 20
-145.827
 30
0.0
 11
150.655
 21
-145.708
 31
0.0
  0
LINE
  8
3
 62
3
 10
150.655
 20
-145.708
 30
0.0
 11
150.774
 21
-145.47
 31
0.0
  0
LINE
  8
3
 62
3
 10
150.774
 20
-145.47
 30
0.0
 11
150.774
 21
-145.113
 31
0.0
  0
LINE
  8
3
 62
3
 10
150.774
 20
-145.113
 30
0.0
 11
150.655
 21
-144.875
 31
0.0
  0
LINE
  8
3
 62
3
 10
150.655
 20
-144.875
 30
0.0
 11
150.536
 21
-144.756
 31
0.0
  0
LINE
  8
3
 62
3
 10
150.536
 20
-144.756
 30
0.0
 11
150.179
 21
-144.637
 31
0.0
  0
LINE
  8
3
 62
3
 10
150.179
 20
-144.637
 30
0.0
 11
149.107
 21
-144.637
 31
0.0
  0
LINE
  8
3
 62
3
 10
149.107
 20
-144.637
 30
0.0
 11
149.107
 21
-145.946
 31
0.0
  0
LINE
  8
3
 62
3
 10
149.107
 20
-145.946
 30
0.0
 11
149.107
 21
-147.137
 31
0.0
  0
LINE
  8
3
 62
3
 10
151.607
 20
-146.065
 30
0.0
 11
153.75
 21
-146.065
 31
0.0
  0
LINE
  8
3
 62
3
 10
154.702
 20
-144.637
 30
0.0
 11
155.655
 21
-147.137
 31
0.0
  0
LINE
  8
3
 62
3
 10
155.655
 20
-147.137
 30
0.0
 11
156.607
 21
-144.637
 31
0.0
  0
LINE
  8
3
 62
3
 10
157.083
 20
-145.113
 30
0.0
 11
157.321
 21
-144.994
 31
0.0
  0
LINE
  8
3
 62
3
 10
157.321
 20
-144.994
 30
0.0
 11
157.679
 21
-144.637
 31
0.0
  0
LINE
  8
3
 62
3
 10
157.679
 20
-144.637
 30
0.0
 11
157.679
 21
-147.137
 31
0.0
  0
LINE
  8
3
 62
3
 10
160.536
 20
-146.661
 30
0.0
 11
160.298
 21
-147.018
 31
0.0
  0
LINE
  8
3
 62
3
 10
160.298
 20
-147.018
 30
0.0
 11
159.94
 21
-147.137
 31
0.0
  0
LINE
  8
3
 62
3
 10
159.94
 20
-147.137
 30
0.0
 11
159.702
 21
-147.137
 31
0.0
  0
LINE
  8
3
 62
3
 10
159.702
 20
-147.137
 30
0.0
 11
159.345
 21
-147.018
 31
0.0
  0
LINE
  8
3
 62
3
 10
159.345
 20
-147.018
 30
0.0
 11
159.107
 21
-146.661
 31
0.0
  0
LINE
  8
3
 62
3
 10
159.107
 20
-146.661
 30
0.0
 11
158.988
 21
-146.065
 31
0.0
  0
LINE
  8
3
 62
3
 10
158.988
 20
-146.065
 30
0.0
 11
158.988
 21
-145.708
 31
0.0
  0
LINE
  8
3
 62
3
 10
158.988
 20
-145.708
 30
0.0
 11
159.107
 21
-145.113
 31
0.0
  0
LINE
  8
3
 62
3
 10
159.107
 20
-145.113
 30
0.0
 11
159.345
 21
-144.756
 31
0.0
  0
LINE
  8
3
 62
3
 10
159.345
 20
-144.756
 30
0.0
 11
159.702
 21
-144.637
 31
0.0
  0
LINE
  8
3
 62
3
 10
159.702
 20
-144.637
 30
0.0
 11
159.94
 21
-144.637
 31
0.0
  0
LINE
  8
3
 62
3
 10
159.94
 20
-144.637
 30
0.0
 11
160.298
 21
-144.756
 31
0.0
  0
LINE
  8
3
 62
3
 10
160.298
 20
-144.756
 30
0.0
 11
160.536
 21
-145.113
 31
0.0
  0
LINE
  8
3
 62
3
 10
160.536
 20
-145.113
 30
0.0
 11
160.655
 21
-145.708
 31
0.0
  0
LINE
  8
3
 62
3
 10
160.655
 20
-145.708
 30
0.0
 11
160.655
 21
-146.065
 31
0.0
  0
LINE
  8
3
 62
3
 10
160.655
 20
-146.065
 30
0.0
 11
160.536
 21
-146.661
 31
0.0
  0
LINE
  8
3
 62
3
 10
161.452
 20
-146.478
 30
0.0
 11
161.369
 21
-146.065
 31
0.0
  0
LINE
  8
3
 62
3
 10
161.369
 20
-146.065
 30
0.0
 11
161.369
 21
-145.708
 31
0.0
  0
LINE
  8
3
 62
3
 10
161.369
 20
-145.708
 30
0.0
 11
161.488
 21
-145.113
 31
0.0
  0
LINE
  8
3
 62
3
 10
161.488
 20
-145.113
 30
0.0
 11
161.726
 21
-144.756
 31
0.0
  0
LINE
  8
3
 62
3
 10
161.726
 20
-144.756
 30
0.0
 11
162.083
 21
-144.637
 31
0.0
  0
LINE
  8
3
 62
3
 10
162.083
 20
-144.637
 30
0.0
 11
162.321
 21
-144.637
 31
0.0
  0
LINE
  8
3
 62
3
 10
162.321
 20
-144.637
 30
0.0
 11
162.679
 21
-144.756
 31
0.0
  0
LINE
  8
3
 62
3
 10
162.679
 20
-144.756
 30
0.0
 11
162.917
 21
-145.113
 31
0.0
  0
LINE
  8
3
 62
3
 10
162.917
 20
-145.113
 30
0.0
 11
163.036
 21
-145.708
 31
0.0
  0
LINE
  8
3
 62
3
 10
163.036
 20
-145.708
 30
0.0
 11
163.036
 21
-146.065
 31
0.0
  0
LINE
  8
3
 62
3
 10
163.036
 20
-146.065
 30
0.0
 11
162.917
 21
-146.661
 31
0.0
  0
LINE
  8
3
 62
3
 10
162.917
 20
-146.661
 30
0.0
 11
162.679
 21
-147.018
 31
0.0
  0
LINE
  8
3
 62
3
 10
162.679
 20
-147.018
 30
0.0
 11
162.321
 21
-147.137
 31
0.0
  0
LINE
  8
3
 62
3
 10
162.321
 20
-147.137
 30
0.0
 11
162.083
 21
-147.137
 31
0.0
  0
LINE
  8
3
 62
3
 10
162.083
 20
-147.137
 30
0.0
 11
161.726
 21
-147.018
 31
0.0
  0
LINE
  8
3
 62
3
 10
161.726
 20
-147.018
 30
0.0
 11
161.488
 21
-146.661
 31
0.0
  0
LINE
  8
3
 62
3
 10
161.488
 20
-146.661
 30
0.0
 11
161.452
 21
-146.478
 31
0.0
  0
ENDSEC
  0
EOF
